Cifra Club

Sou Seu Problema

Hora de Aventura

Tab de bajo: Principal
La ra da da da, vou te enterrar aqui no chão, la ra da da da, vou te enterrar com esta canção
G |----------------------------------------------------|
D |----------------------------------------------------|
A |-------------------10-10-------------------------|
E |--0-0-7-7-8-8-----------0-0-7-7-8-8-10-9-|

Eu vou beber o vermelho, do seu lindo rosto rosa, e eu vou...
G |------------------------------------------------------|
D |------------------------------------------------------|
A |--------6-6------10-10---------------------------|
E |--0-0-------8-8-----------0-0-7-7-8-8-10-9--|

Desculpe se a não trato como deusa, se é isso que você espera de mim
G |------------------------------------------------------|
D |------------------------------------------------------|
A |------------------------------------10-10-10-10-|
E |--0-0-0-0-7-7-7-7-8-8-8-8--------------------|

Desculpe se não chamo de perfeita, como todos os seus súditos assim
G |---------------------------------------------------|
D |---------------------------------------------------|
A |------------------------------------10-10-9-9-|
E |--0-0-0-0-7-7-7-7-8-8-8-8-----------------|

Desculpe se não sou de açúcar, se não sou doce o bastante pra você
G |--------------------------------------------------------|
D |--------------------------------------------------------|
A |---------------6-6-6-6-------------10-10-10-10-|
E |--0-0-0-0--------------8-8-8-8--------------------|

É por isso que sempre me evita, sou um incomodo enorme pra você, bem...
G |---------------------------------------------------|
D |---------------------------------------------------|
A |------------------------------------10-10-9-9-|
E |--0-0-0-0-7-7-7-7-8-8-8-8-----------------|

Sou seu problema!
G |--------------------------------------------------------|
D |--------------------------------------------------------|
A |--------------------------------------------------------|
E |--8-8-8-8-8-8-8-8-8/11-11-11-11-11-11-11-|

Sou seu problema
G |--------------------------------------------------|
D |--------------------------------------------------|
A |-------7-7-7-7-7-7-7-------------------------|
E |--7----------------------0-5-5-5-7-7-7-7-7-|

É como se, gente eu não fosse, será que sou?
G |--------------------------------------------------------|
D |--------------------------------------------------------|
A |--------------------------------------------------------|
E |--8-8-8-8-8-8-8-8-8/11-11-11-11-11-11-11-|

Sou seu problema, bem...
G |--------------------------------------------------|
D |--------------------------------------------------|
A |------7-7-7-7-7-7-7--------------------------|
E |--7----------------------0-5-5-5-7-7-7-7-7-|

E-e-e-eu não tenho que justificar o que vou fazer
G |------------------------------------------------------|
D |------------------------------------------------------|
A |------------------------------------10-10-10-10-|
E |--0-0-0-0-7-7-7-7-8-8-8-8--------------------|

E-e-e-eu não tenho que provar nada pra você
G |---------------------------------------------------|
D |---------------------------------------------------|
A |------------------------------------10-10-9-9-|
E |--0-0-0-0-7-7-7-7-8-8-8-8-----------------|

Desculpe-me por existir, na sua lista negra entrei sem resistir, mas
G |-------------------------------------------------------|
D |-------------------------------------------------------|
A |--------------6-6-6-6-------------10-10-10-10-|
E |--0-0-0-0--------------8-8-8-8-------------------|

Não sou eu quem devo fazer as pazes com você, então
G |--------------------------------------------------|
D |--------------------------------------------------|
A |------------------------------------10-10-9-9-|
E |--0-0-0-0-7-7-7-7-8-8-8-8----------------|

Por que eu quero?
G |--------------------------------------------------------|
D |--------------------------------------------------------|
A |--------------------------------------------------------|
E |--8-8-8-8-8-8-8-8-8/11-11-11-11-11-11-11-|

Por que eu quero?
G |--------------------------------------------------|
D |--------------------------------------------------|
A |------7-7-7-7-7-7-7--------------------------|
E |--7----------------------0-5-5-5-7-7-7-7-7-|

Te enterrar no chão, e beber seu sangue...
G |----------------------------------------------------------------------|
D |----------------------------------------------------------------------|
A |-----------------------------------------------------------------10-|
E |--0-------------------7---------------8-----------------------------|
00:00 / 00:00
Otros videos de esta canción
Repetir
Otros videos de esta canción
Composición de Marceline
Colaboración y revisión:
  • Thaís Machado
37 vistas

0 comentarios

Ver todos los comentarios

¿Lograste tocar?

2 Tocaron 0 Aún no

¡Graba un video tocando Sou Seu Problema y envíanoslo!

00:00 / 00:00
OK