Cifra Club

Donde se junten los tiempos

Horacio Banegas

Cifrado: Principal (guitarra y guitarra eléctrica)
tono: Am

Intro 1:
                  Dm       Am    E7             Am 
E|-----------------------------------------------|
B|--3--5--6--3--6--5--3--5--3--0--1--3--5--3--1--|
G|--4--5--7--4--7--5--4--5--4--0--2--4--5--4--2--|
D|-----------------------------------------------|
A|-----------------------------------------------|
E|-----------------------------------------------|
      Am      Dm  C          E7            Am 
E|----------------------------10---8---7-5--|
B|--3-5-6-3-6---10--------------------------|
G|--4-5-7-4-7------9----9--10----9---7---5--|
D|-------------------10---------------------|
A|------------------------------------------|
E|------------------------------------------|

Intro 2: (se repite dos veces)
          Dm      Am      E7          Am 
E|--5-3-1---8-7-5---7-5-4--5-7---------|
B|------------------------------5-3-1--|
G|--5-4-2---9-7-5---7-5-4--5-7--5-4-2--|
D|-------------------------------------|
A|-------------------------------------|
E|-------------------------------------|


(Intro1)
Am 
Le queda un sitio a tu sombra
                      E7 
para guardar tu recuerdo

alla por las noches largas
                         Am 
que me traeran los inviernos
   F               Dm 
brasitas que me consuelen
          E7            Am 
cuando se machen mis sueños

(Intro2)
Cuando se machen mis sueños
iran mis duendes travieso
a rescatar alegrías
hasta el brocal de lo viejo
y así quizas tu mirada
se me aparesca de nuevo

(Intro1)
Se me aparesca de nuevo
mirando desde el incendio
cenizas en remolino
que desmenuzan los vientos
buscando el solar gastado
donde se junten los tiempos

   ESTRIBILLO:
   Donde se junten los tiempos
   sera en mi tierra que canta
   lugar de añosas memorias
   y amigos de mi nostalgias
   reñidero de la vida
   donde conversen guitarras

(Intro2)
Que me autorice por viejo
la madurez de los años
para cantarle a esta tierra
que me espera desde abajo
en esta noche crecida
desde un lugar del ocaso

(Intro1)
Desde un lugar del ocaso
se me aparece tu estampa
mujer de vientre de barro
con el perfil de tinaja
barro cocido por soles
que dan color a mi raza

(Intro2)
Que dan color a mi raza
en un mortero reseco
que me hace arina los días
majando los sentimientos
buscando el lugar preciso
donde se junten los tiempos

CUERDAS  6°5°4°3°2°1°

Tercer aporte que hago. Del MAESTRO HORACIO BANEGAS dedicado a la
barra guitarrera Porcel, Los Pempo, Dani, AZU, Jose Luis, PEPE, Alberto Luna,
Piru, Anibal y a dos grandes amigos que se nos fueron OTIS y Dario.
00:00 / 00:00
Otros videos de esta canción
Repetir
Otros videos de esta canción
Compositor no encontrado.
1 vistas
    • ½ Tono
    • Am
    • Bbm
    • Bm
    • Cm
    • C#m
    • Dm
    • Ebm
    • Em
    • Fm
    • F#m
    • Gm
    • G#m
  • Agregar a la lista

    0 comentarios

    Ver todos los comentarios

    ¿Lograste tocar?

    0 Tocaron 0 Aún no

    ¡Graba un video tocando Donde se junten los tiempos y envíanoslo!

    00:00 / 00:00
    OK