Cifra Club

Im A One Woman Man

Johnny Horton

Cifrado: Principal (guitarra y guitarra eléctrica)
Selo Cifra Club: esta cifra foi revisada para atender aos critérios oficiais da nossa Equipe de Qualidade.
tono: G
E|---------------------------------------------------------------------------|
B|---------------------------------------------------------------------------|
G|---------------------------------------------------------------------------|
D|------------------2-2--2h4p2---2---2---------------------------------------|
A|---------0---4-------------------------4---2---0---2---4-----2h4----4---2--|
E|--0---2--------------------------------------------------------------------|

E|---------------------------------------------------------------------------|
B|---------------------------------------------------------------------------|
G|---------------------------------------------------------------------------|
D|---------------------------------------------------------------------------|
A|--2--------------------------0h2p0----0------------------------------------|
E|---------4-----4----2---0h2------------------------------------------------|


[Verse 1]
G
If you told me that you love me I would feel so proud,
                                   D7         G
if you let me hold ya honey, I'd a holler out loud
     G
I'll never love another even if I can,
                          D7        G
Oh come to me baby, I'm a one woman man.


[Chorus]
G                             C
Won't you let me baby, just a kinda hang around?
     D7                             G
I'll always love you honey and I'll never let ya down
     G
I'll never love another even if I can,
                          D7        G
oh come to me baby, I'm a one woman man!


[Solo]

E|---------------------------------------------------------------------------|
B|---------------------------------------------------------------------------|
G|---------------------------------------------------------------------------|
D|------------------2-2--2h4p2---2---2---------------------------------------|
A|---------0---4-------------------------4---2---0---2---4-----2h4----4---2--|
E|--0---2--------------------------------------------------------------------|

E|---------------------------------------------------------------------------|
B|---------------------------------------------------------------------------|
G|---------------------------------------------------------------------------|
D|------------------------------------------------------2-2--2h4p2---2---2---|
A|--2--------------------------0h2p0----0-----0--2---4-----------------------|
E|---------4-----4----2---0h2------------------------------------------------|

E|---------------------------------------------------------------------------|
B|---------------------------------------------------------------------------|
G|---------------------------------------------------------------------------|
D|---------------------------------------------------------------------------|
A|--4---2---0---2---4--------2h3-3b--2h3p2--2---2--------------------0h2-0-0-|
E|----------------------------------------------------4----4----0------------|


[Verse 2]
G
I'd climb the highest mountain if it reached up to the sky
                                 D7           G
to prove that I love you I would jump off and fly
    G
I'd even swim the ocean from shore to shore
                            D7         G
to prove that I love just a little bit more


[Chorus]
G                             C
Won't you let me baby, just a kinda hang around?
     D7                             G
I'll always love you honey and I'll never let ya down
     G
I'll never love another even if I can,
                          D7        G
oh come to me baby, I'm a one woman man!


[Solo]

E|---------------------------------------------------------------------------------|
B|---------------------------------------------------------------------------------|
G|---------------------------------------------------------------------------------|
D|------------------2-2--2h4p2---2---2---------------------------------------------|
A|---------0---4-------------------------4---2---0---2---4---2h3-3b--2h3p2--2---2--|
E|--0---2--------------------------------------------------------------------------|

E|-------------------------------------------------------------------------------------------------|
B|-------------------------------------------------------------------------------------------------|
G|-------------------------------------------------------------------------------------------------|
D|-------------------------------------2-2--2h4p2---2---2------------------------------------------|
A|-------------------0h2p0---0--2--4---------------------------4---2---0---2---4-----2h4----4---2--|
E|--4--4--2-0--0h2---------------------------------------------------------------------------------|

E|---------------------------------------------------------------------------|
B|---------------------------------------------------------------------------|
G|---------------------------------------------------------------------------|
D|---------------------------------------------------------------------------|
A|--2--------------------------0h2p0----0------------------------------------|
E|---------4-----4----2---0h2------------------------------------------------|


[Chorus]
G                             C
Won't you let me baby, just a kinda hang around?
     D7                             G
I'll always love you honey and I'll never let ya down
     G
I'll never love another even if I can,
                          D7        G
oh come to me baby, I'm a one woman man!



************************************

| h   Hammer-on
| p   Pull-off
| b   Bend
Otros videos de esta canción
    0 exhibiciones
      • ½ Tono
      • A
      • Bb
      • B
      • C
      • Db
      • D
      • Eb
      • E
      • F
      • F#
      • G
      • Ab
    • Agregar a la lista

    Afinação da cifra

    Afinador online

      Ops (: Contenido disponible solo en portugués.
      OK