Cifra Club

Death Dont Have No Mercy

Hot Tuna

Cifrado: Principal (guitarra y guitarra eléctrica)
tono: C
Date: Thu, 30 Apr 1998 08:59:58 +0200 (CEST)
From: Nacho 
Subject: h/hot_tuna/*

DEATH DON'T HAVE NO MERCY (Reverend Gary Davis)
================================================
Tabbed by: Ignacio Puell (*)
Delight of the Moon Guitar Tab Archive (http://*~nacho)

Tab signs used: / = slide

When a chord has to be played listen to the song for know how many times
you must play it.

-------
 Intro
-------

e-----------------5|--7---5---------------|----------------------------------0|
B--5/7--5---5--5---|-----------5--3-------|----------------------------------0|
G------------------|------------------4--2|-2/4---0----------0---------------0|
D------------------|----------------------|----------2---2----2--0--------2--2|
A------------------|---------------------0|---0--------------------2----2----x|
E--0----0---0--0--0|--0---0---0-----------|----------0---0------------3------x|

                              D          G                    B7
e-------0-0-0-0-0-0---|-------2----------3|--------------------2--------------|
B--5/7--5-5-5-5-5-5--0|-------3----------3|--------------------0----------0---|
G---------------------|-------2----------0|--------------------2----------0---|
D---------------------|-------0----------0|--------------------1----------0---|
A---------------------|------------------2|-------0--1/2--2----2--------------|
E--0----0-0-0-0-0-0---|------------------3|----3---------------x--------------|

                                              Am                            Em
e------------------------0---|-----------------0--|--------------------------0|
B---5/7---5/7----5/7--0--0--5|---3-------------1--|--3/5--5--3---------------0|
G----------------------------|------4\2--0-----2--|-------------4---2--0-----0|
D----------------------------|-----------------2--|----------------------2---2|
A----------------------------|-----------------0--|--------------------------2|
E---0-----0----0------0--0--0|-----------------x--|--------------------------0|

                       Am       E7    Em                                     Em
e-----------------------0-------2-----0-----|--------------------------------0|
B-----------------------1--0----0-----0-----|--------3-----------------------0|
G---2/4---4--2--0-------2--0----2-----0-----|--2/4------2--2\4--0----0-------0|
D-------------------0---2--0----1-----2-----|----------------------2-----2---0|
A-----------------------0-------2-----2-----|--------------------------------2|
E--0--------------------x-------x-----0-----|--0-------------------------0---2|

Well.... death don't have no mercy
in this land.
 
I said...
00:00 / 00:00
Otros videos de esta canción
Repetir
Otros videos de esta canción
Compositor no encontrado.
88 vistas
    • ½ Tono
    • A
    • Bb
    • B
    • C
    • Db
    • D
    • Eb
    • E
    • F
    • F#
    • G
    • Ab
  • Agregar a la lista

    0 comentarios

    Ver todos los comentarios

    ¿Lograste tocar?

    1 Tocaron 0 Aún no

    ¡Graba un video tocando Death Dont Have No Mercy y envíanoslo!

    00:00 / 00:00
    OK