Cifra Club

Freightliner

Hot Water Music

Cifrado: Principal (guitarra y guitarra eléctrica)
tono: A
This is my very first tab so yeah criticise as much as you want.
It's about 90% correct and I tabbed it by ear.  As I saw there were no other tabs for 
song I put on up.  If anyone wants to write out a full version i'd appreciate it.

Notes:  this is the fun guitar .  The second
verse isn't tabbed but it is almost the same is the first.

h=hammer on
p=pull off
s=slide

Intro X4
e|-------------|
B|-------------|
G|-------------|
D|--6----------|
A|--4--7--2----|
E|-----5--0----|

1st solo
e|--------------------------------------------------------------------|
B|--------------------------------------------------------------------|
G|-4-4s6-4-4h6p4---------1-4-2-1h2p1-1-2-1-1h2p1-1-2-1-4-1-1h2p1------|
D|--------------2-2h4s6-4-----------2-----2-----2---------------2-2s4-|
A|--------------------------------------------------------------------|
E|--------------------------------------------------------------------|

Verse
e|-----------------------|
B|-----------------------|
G|--4-----4-1-1h2p1-1-4--|
D|--------4---------2-4--|
A|--------2-----------2--|
E|-----------------------|

Chorus X2
e|-----------------|
B|-----------------|
G|-----------------|
D|-5------5--------|
A|-4-7-2--4-7-2-4--|
E|---5-0----5-0-2--|

2nd Solo
e|----------------------------------------------------------------|
B|----------------------------------------------------------------|
G|--4-4s6-4-4h6p4---4-------4--1-1h2p1-----1h2p1-1-2-1h2p1----4---|
D|----------------2---2h4s6-4---------2-2-2-----2---------2-2s4---|
A|----------------------------------------------------------------|
E|----------------------------------------------------------------|

Verse

Chorus X4

Palm muted bridge X4
e|---------------|
B|---------------|
G|---------------|
D|-6---6---------|
A|-4-7-4-4-------|
E|---5---2-------|

Rockin' outro
e|---------------------|
B|---------------------|
G|---------------------|
D|-6----4-2-------2-4--|
A|-4----2-0----2--0-2--|
E|-------------0-------|

enjoy
00:00 / 00:00
Otros videos de esta canción
Repetir
Otros videos de esta canción
Composición de Mark T. Jungers
51 exhibiciones
    • ½ Tono
    • A
    • Bb
    • B
    • C
    • Db
    • D
    • Eb
    • E
    • F
    • F#
    • G
    • Ab
  • Agregar a la lista
    00:00 / 00:00
    OK