Cifra Club

As Palavras

Houdini

Cifrado: Principal (guitarra y guitarra eléctrica)
tono: C
Intro - C
e|- - - - - - - - - - - - - - - - - -|
b|- - - - - - - - - - - - - - - - - -|
g|- - -5- -5- -5-4- - - -5- -5- -4- -|
D|- -5- -5- -5- - -5- -5- -5- -5- -5-|
A|-3- - - - - - - - -3- - - - - - - -|
E|- - - - - - - - - - - - - - - - - -|

* = ABAFADO

Riff 1

---------------------------
---------------------------
-5--5-5-5-5-5-5----5--4--5-
-5--5-5-5-5-5-5----5--5--5-
---------------------------
---------------------------
    * * * * * *

Riff 2

-----------------------------------------------------------
-----------------------------------------------------------
11-11-11-11-11-11-11--9-9-9-9-9-9-9--7-7-7-7-7-7--5-5-5-5-5
-----------------------------------------------------------
-----------------------------------------------------------
-----------------------------------------------------------
*  *  *  *  *  *  *   * * * * * * *  * * * * * *  * * * * *

Riff 3
-->(Apartir do:"sem o medo de acreditar...")
----------------------------------
----------------------------------
-9-7-9-7--12-12-12-12-9-9-9-7-7-7-
----------------------------------
-7-5-7-5--10-10-10-10-7-7-7-5-5-5-
----------------------------------

Riff 4
-->(Apartir:"aqui com você...")

 SAO TUDO OITAVAS ( ouca direitinho pra poder pegar o tempo delas )

D D D D D C D E G E D C

-->(Apartir do segundo:"aqui com você...")

D D D D D C D E G E D E G




--------------------------


C               G
É dificil começar
A                        F
Há tanta coisa para lembrar
C (Riff1)          G                 A
É tanto tempo junto de muita história  
F (Riff1)              
Que vivemos sem o medo de errar   (Riff1)

>>VERSO(Apartir do: "é tanto tempo juntos..."  até o  "sem o medo de errar...")


COMEÇA O Riff 3
C         G           A  
Sem o medo de acreditar
F
Que as coisas podem ser assim


COMEÇA O Riff 2
c              G
Por muito tempo
A                       F 
pois eu quero só estar, quero só estar
G  (Riff 4)    F       G
aqui, com você.....aqui....

C                               G
As palavras já não podem explicar
A                F
O sentido de viver, e ao seu lado sempre estar.
C                                G
As palavras já não podem explicar
A                   F                  
Da vontade de te ver, e nunca te deixar
00:00 / 00:00
Otros videos de esta canción
Repetir
Otros videos de esta canción
Compositor no encontrado.
Colaboración y revisión:
  • Raphael Menezes
  • felipe
53 vistas
    • ½ Tono
    • A
    • Bb
    • B
    • C
    • Db
    • D
    • Eb
    • E
    • F
    • F#
    • G
    • Ab
  • Agregar a la lista

    0 comentarios

    Ver todos los comentarios

    ¿Lograste tocar?

    1 Tocaron 0 Aún no

    ¡Graba un video tocando As Palavras y envíanoslo!

    00:00 / 00:00
    OK