Cifra Club

Cataratas

Houdini

Cifrado: Principal (guitarra y guitarra eléctrica)
tono: B
Intro: 

Riff1:
   B            F#          G#m                 E
e|--------------------------------------------------
B|--------------------------------------------------
G|----11----11----9----9--8----8----9----9----9--11-
D|-9-9---9-9---9-9--9-9--9--9-9--9-9--9-9--9-9--9---
A|--------------------------------------------------
E|--------------------------------------------------
   B            F#           G#m             E
e|-------------------------------------------------|
B|-------------------------------------------------|
G|----11----11----9----9--8-----8----9-8/9-9-9\8---|
D|-9-9---9-9---9-9--9-9--9---9-9--9-9--x/x-x-x\x---|
A|-------------------------------------6/7-7-7\6---|
E|-------------------------------------------------|

Riff2:
   B   F#    G#m         E     B       F#       
e|-------------------------------------------------|
B|-------------------------------------------------|
G|-8888/9999/11-11-11-11\9-9-9-8-8-8-8/9-9-9-------|
D|-xxxx/xxxx/x--x--x---x\x-x-x-x-x-x-x/x-x-x-xx444-|
A|-6666/7777/9--9--9---9\7-7-7-6-6-6-6/7-7-7-xx444-|
E|-------------------------------------------xx222-|


B                       F#
Se eu pedisse pra que a vida me levasse 
         G#m                           E   G#m F#
pra bem perto das coisas que eu quero ter
       B                      F#  
Foi você quem disse pra eu fazer  
                     G#m                E
aquilo que eu acreditar e agora veja você
               
Refrão:
---------------------------------------------------
               B          C#           D# F# E D#
Que eu vou descer as cataratas num barril
        B                C#            D#  
E se você disser que eu vou me arrebentar  
             F# E D#
eu não vou nem pensar
   B           C#        D# F# E D#
Assim como eu fiz por você
   B           C#        D# F# E D#
Assim como eu fiz por você
---------------------------------------------------

Riff3:
e|-----------------------------------------------|
B|-----------------------------------------------|
G|-444444/6-9-8-8888/11-16-11--444444/6-9-8------|
D|-xxxxxx/x-x-x-xxxx/x---x--x--xxxxxx/x-x-x-6-4--|
A|-222222/4-7-6-6666/9--14--9--222222/4-7-6-6-4--|
E|------------------------------------------4-2--|


B          F#              G#m         E
Só me arrependo do que eu deixei de fazer
B          F#           G#m         E
Só me arrependo do que deixei de fazer!
B           F# 
E pra dizer, isso é fácil demais
G#m         E
E pra fazer, não pode olhar pra trás
B           F#
E pra dizer, isso é fácil demais
G#m         E                      B F# G#m          
E pra fazer, não pode olhar pra tráááás
E                     B F# G#m E
Não pode olhar pra tráááás!

 
Repete Refrão
Repete Riff3 2x
Final: F#5, B
00:00 / 00:00
Otros videos de esta canción
Repetir
Otros videos de esta canción
Compositor no encontrado.
Colaboración y revisión:
  • Wagner Rambo
24 vistas
    • ½ Tono
    • A
    • Bb
    • B
    • C
    • Db
    • D
    • Eb
    • E
    • F
    • F#
    • G
    • Ab
  • Agregar a la lista

    0 comentarios

    Ver todos los comentarios

    ¿Lograste tocar?

    1 Tocaron 0 Aún no

    ¡Graba un video tocando Cataratas y envíanoslo!

    00:00 / 00:00
    OK