Cifra Club

Killing Floor

Howlin' Wolf

Cifrado: Principal (guitarra y guitarra eléctrica)
Selo Cifra Club: esta cifra foi revisada para atender aos critérios oficiais da nossa Equipe de Qualidade.
tono: A
Intro / Refrão:
      E7*  D7*  A7* E7**
e||---12---10---5---7---|
B||---12---10---8---9---|
G||---13---11---6---7---|  *  -> "Tocar" 7x os 3 primeiros acordes de baixo para cima.
D||---12---10---5---9---|  ** -> No ultimo E7, toque 7x apenas para baixo.
A||-------------7---7---|
E||---------------------|

Versos:
       A7      G7  A                      D7        C7  D       A7      G7  A
e||---9-9---9--7--5-5---|          |----14-14---14--12--10-----9-9---9--7--5-5---|
B||---8-8---8--6--5-5---|          |----13-13---13--11--10-----8-8---8--6--5-5---|
G||-8/9-9---9--7--6-6---|  --> 2x  |-12/14-14---14--12--11---8/9-9---9--7--6-6---|
D||---------------------|          |---------------------------------------------|
A||---------------------|          |---------------------------------------------|
E||---------------------|          |---------------------------------------------|

Refrão = Intro

Fica legal se tiver 2 violões (ou guitarras), uma faz a base acima e outra faz a linha de baixo.

Linha de Baixo:
        2x                1x                          Refrão
e||---------------|---------------|----------------------------------------------|
B||---------------|---------------|----------------------------------------------|
G||---------------|---------------|-----111-234----------------------------------|
D||---------------|--00-444-567---|--22----------00-444-567----------------------|
A||--00-444-567---|---------------|--------------------------00-44-56777777------|
E||---------------|---------------|----------------------------------------------|
Otros videos de esta canción
    3.362 exhibiciones
      • ½ Tono
      • A
      • Bb
      • B
      • C
      • Db
      • D
      • Eb
      • E
      • F
      • F#
      • G
      • Ab
    • Agregar a la lista

    Afinación de cifrado

    Afinador online

      OK