Cifra Club

Cherry Wine

Hozier

Cifrado: Principal (guitarra y guitarra eléctrica)
tono: Db (con acordes en la forma de G) Capotraste en 6ª casa
Intro:
E|-----------------------|
B|-----------------------|
G|-----------------------|
D|-----------------------|
A|-----------------------|
E|-3---3---3---3---3---3-|

E|----------0--------|-0---3--5--|--------------------|-------------------|
B|----------------3--|-----0--0--|--------------------|-------------------|
G|-------------------|-----------|-2h4---------4p2p0--|--0---------0h2p0--|
D|-------------------|-----------|-0-----------0------|--0---0h2----------|
A|-------------------|-----------|--------------------|-------------------|
E|-3-----3-----3-----|-3---3--3--|-3-----3-----3------|--3---3-----3------|

E|----------0--------|-0---3--5--|--------------------|-----------------|
B|----------------3--|-----0--0--|--------------------|-----------------|
G|-0-----------------|-----------|-2h4---------4p2p0--|--0---------0h2--|
D|-0-----------------|-----------|-0-----------0------|--0---0h2--------|
A|-------------------|-----------|--------------------|-----------------|
E|-3-----3-----3-----|-3---3--3--|-3-----3-----3------|--3---3-----3----|

E|----------------|----------------|----------------|-------------------|
B|-0h1------0-----|----------------|----------0-----|-------------------|
G|-0--------------|----------0-----|-0h2------------|----------0--------|
D|----------------|-0h2------------|----------------|-0h2------------0--|
A|-3-----3-----3--|-3-----3-----3--|-3-----3-----3--|-3-----3-----3-----|
E|----------------|----------------|----------------|-------------------|

E|----------0--------|------------------|-----------------|----------------|
B|----------------3--|-0----------------|-----------------|----------------|
G|-0-----------------|----2-----0-------|-0h2p0-----------|-0--------0-----|
D|-0-----------------|-------------0h2--|-----------0-----|-0--------0-----|
A|-------------------|------------------|-----------------|----------------|
E|-3-----3-----3-----|-3-----3-----3----|-3------3-----3--|-3-----3-----3--|

Her eyes and words ...
E|--------------|---------------|--------------|--------------|
B|-3------------|---------3-----|-----------3--|-----------3--|
G|---------2----|-4-------0-----|-2----4-------|-2----4-------|
D|--------------|---------------|--------------|--------------|
A|--------------|---------------|--------------|--------------|
E|-3----3-----3-|-3----3-----3--|-3----3----3--|-3----3----3--|

E|---------------|---------------|--------------|----------------|
B|---------------|---------------|--------------|----------------|
G|-0-------0-----|-0-------0-----|-0-------0----|-0h2p0-----0----|
D|-2-------2-----|-2-------2-----|-0-------0h2--|-----------0----|
A|---------------|---------------|--------------|----------------|
E|-0----0-----0--|-3----3-----3--|-3----3----3--|-3------3-----3-|


Bridge: C/G   Em

E|-0----0----------|
B|-1----1----------|
G|-0----0-----0----|     (x2)
D|-2----2-----2----|
A|-3----3-------2--|
E|-3----3-----0----|

E|-0--------------------|
B|-1----1--1----1--1----|
G|-0--------------------|
D|-2------------------0-|
A|-3----3--2------------|
E|-3------------0--2----|


Chorus:

E|---------0--------|-0---3--5--|---------------------------------|
B|-0-------------3--|-----0--0--|---------------------------------|
G|------------------|-----------|-2h4-------4p2p0--0-------0------|
D|------------------|-----------|-0---------0------0-------0------|   (x2)
A|------------------|-----------|---------------------------------|
E|-3----3-----3-----|-3---3--3--|-3----3----3------3----3------3--|

E|----------------|----------------|----------------|-------------------|
B|-1--------0-----|----------------|----------0-----|-------------------|
G|-0--------------|----------0-----|---2------------|----------0--------|
D|----------------|---2------------|----------------|---2------------0--|
A|-3-----3-----3--|-3-----3-----3--|-3-----3-----3--|-3-----3-----3-----|
E|----------------|----------------|----------------|-------------------|

E|----------0--------|------------------|-----------------|----------------|
B|----------------3--|-0----------------|-----------------|----------------|
G|-0-----------------|----2-----0-------|-0h2p0-----------|-0--------0-----|
D|-0-----------------|-------------0h2--|-----------0-----|-0--------0-----|
A|-------------------|------------------|-----------------|----------------|
E|-3-----3-----3-----|-3-----3-----3----|-3------3-----3--|-3-----3-----3--|


Solo:

E|------------0----|------------0-----|------------0----|-------------------|
B|-0h1-------------|-1/3--------------|-3\1-------------|-1/3--3\1p0-----0--|
G|---------0-------|---------0--------|---------0-------|-------------------|
D|------2-------2--|-2/4--4--------4--|-4\2--2--------2-|-2/4--4\2p0--0-----|
A|-0---------------|------------------|-----------------|-------------------|
E|-----------------|------------------|-----------------|-------------------|

E|---------0--------|------------------------|-------------------|---------------|
B|---------------3--|-0h3p0------------------|-------------------|---------------|
G|------------------|---------0h2p0----------|----------------0--|-0h2-----2-----|
D|------------------|-----------------0h2p0--|-----------0h2-----|-0-------0-----|
A|------------------|------------------------|-0h2---------------|---------------|
E|-3----3-----3-----|-3-------3-------3------|-3-----3-----3-----|-3----3-----3--|

E|------------0----|------------0-----|------------0----|-------------------|
B|-0h1-------------|-1/3--------------|-3\1-------------|-1/3--3\1p0-----0--|
G|---------0-------|---------0--------|---------0-------|-------------------|
D|------2-------2--|-2/4--4--------4--|-4\2--2--------2-|-2/4--4\2p0--0-----|
A|-0---------------|------------------|-----------------|-------------------|
E|-----------------|------------------|-----------------|-------------------|

E|--------------------|-----------------------|----------------3------|
B|-------------0------|-0---------0-----------|----------3------------|
G|----------0---------|-0------0--------------|-------0---------------|
D|-------4---------4--|-------------------0---|----0--------0---------|
A|--------------------|-----------------------|-----------------------|
E|-0------------------|-0--------------2------|-3------------------3--|

Her fight and fury...
E|--------------------|--------------|---------------|--------------|
B|-3---------------3--|------------3-|------------3--|--------------|
G|------2---4---------|-2---4--------|-2---4---------|-0----0----0--|
D|--------------------|--------------|---------------|-2----2----0--|
A|--------------------|--------------|---------------|--------------|
E|-3------------------|--------------|---------------|-0----3----3--|

E|--------------|---------------|--------------|--------------|
B|-3------------|---------3-----|-----------3--|-----------3--|
G|---------2----|-4-------0-----|-2----4-------|-2----4-------|
D|--------------|---------------|--------------|--------------|
A|--------------|---------------|--------------|--------------|
E|-3----3-----3-|-3----3-----3--|-3----3----3--|-3----3----3--|

E|---------------|---------------|--------------|----------------|
B|---------------|---------------|--------------|----------------|
G|-0-------0-----|-0-------0-----|-0-------0----|-0h2p0-----0----|
D|-2-------2-----|-2-------2-----|-0-------0h2--|-----------0----|
A|---------------|---------------|--------------|----------------|
E|-0----0-----0--|-3----3-----3--|-3----3----3--|-3------3-----3-|

Repeat the bridge and the chorus then play this.

E|-0--------0--------|-0---3--5--|--------------------|-------------------|
B|----------------3--|-----0--0--|--------------------|-------------------|
G|-------------------|-----------|-2h4---------4p2p0--|--0---------0h2p0--|
D|-------------------|-----------|-0-----------0------|--0---0h2----------|
A|-------------------|-----------|--------------------|-------------------|
E|-3-----3-----3-----|-3---3--3--|-3-----3-----3------|--3---3-----3------|

E|----------------|----------------|----------------|-------------------------|
B|-0h1------0-----|----------------|----------0-----|-------------------------|
G|-0--------------|----------0-----|-0h2------------|----------0-----------0--|
D|----------------|-0h2------------|----------------|-0h2------------0-----0--|
A|-3-----3-----3--|-3-----3-----3--|-3-----3-----3--|-3-----3-----3-----------|
E|----------------|----------------|----------------|----------------------3--|

E|-0-------------------------|
B|----3--0-------------------|
G|----------2--0-------------|
D|----------------2--0-------|
A|----------------------0h2--|
E|----------------------3----|
Composición de Andrew Hozier-Byrne
Colaboración y revisión:
  • Eudes
3.056 vistas
    • ½ Tono
    • A
    • Bb
    • B
    • C
    • Db
    • D
    • Eb
    • E
    • F
    • F#
    • G
    • Ab
  • Agregar a la lista

    0 comentarios

    Ver todos los comentarios

    ¿Lograste tocar?

    8 Tocaron 7 Aún no

    ¡Graba un video tocando Cherry Wine y envíanoslo!

    00:00 / 00:00
    Outros vídeos desta música
    Repetir Calidad Automático
    Outros vídeos desta música
    00:00 / 00:00
    Automático
    OK