Cifra Club

In A Week

Hozier

Cifrado: Principal (guitarra y guitarra eléctrica)
tono: G
Afinação: D G D G B e

Intro.:
                          I1

E|-------------0--2--3---3----3---3----7---2----3--2--0------------------|
B|-3---3----3--------------------------------------------3---3----3---3--|
G|-----------------------------------------------------------------------|
D|-----------------------------------------------------------------------|
G|-0--0--0--0--0--0--0--0--0--0--0--0--0--0--0--0--0--0--0--0--0--0--0--0|
D|-----------------------------------------------------------------------|

                     I2

E|--------------------------------------|
B|-1---1----1/3--1--0------3----0---0---|
G|---------------------2----------------|
D|-2--2--2--2/4--2--0-------------------|
G|---------------------2--2--2--0--0--0-|
D|--------------------------------------|

              I3

E|-----------------------------|
B|-----------------------------|
G|-----0-----------------------|
D|-3----------5---5----5-------|
G|-----------------------------|
D|-3--3--3/5--5--5--5--5--5--5-|

Versos:

E|-----------------------------------------------------------------------------|
B|-----3----3-----3----3-----3----3----3----3----------------------------------|
G|------------------------------------------------------/5---3-----------------|
D|-----3--3---3---3--3---3---2--2---2--2--2---2--------------------------------|
G|------------------------------------------------------/5---3-----------------|
D|-----------------------------------------------------------------3----5------|

I have never known peace like the damp grass that yields to me
I have never known hunger like these insects that feast on me
A thousand teeth and yours among them, I know
Our hungers appeased, our heartbets becoming slow

Pré-Refrão:
                  P1                            P2 (2x)

E|---------------------------------------|------------------|
B|---------------------------------------|-----3----0---0---|
G|---------------------------------------|-2----------------|
D|--5--------2-----0--4--2--0--5--0--2h0-|------------------|
G|--0--0--0--0--0--0--0--0--0--0--0--0---|-2--2--2--0--0--0-|
D|---------------------------------------|------------------|

(P1)
We lay here for years or for hours
(P2)
Thrown here or found
To freeze or to thaw
(P1)
So long we become the flowers
(P2)
Two corpses we were
Two corpses I saw

Refrão:

                              R1

E|-------------0--2--3---3----3---3----7---2----3--2--0------------------|
B|-3---3----3--------------------------------------------3---3----3---3--|
G|-----------------------------------------------------------------------|
D|-----------------------------------------------------------------------|
G|-0--0--0--0--0--0--0--0--0--0--0--0--0--0--0--0--0--0--0--0--0--0--0--0|
D|-----------------------------------------------------------------------|

                   R2

E|--------------------------------------|
B|-1---1----1/3--1--0------3----0---0---|
G|---------------------2----------------|
D|-2--2--2--2/4--2--0-------------------|
G|---------------------2--2--2--0--0--0-|
D|--------------------------------------|

              R3

E|-----------------------------|
B|-----------------------------|
G|-----0-----------------------|
D|-3----------5---5----5-------|
G|-----------------------------|
D|-3--3--3/5--5--5--5--5--5--5-|

    (R1)
And they'd find us in a week
When the weather gets hot
(R2)
After the insects have made their claim
      (R3)
I'd be home with you
      (R3)
I'd be home with you

Repete a estrofe:

I have never known sleep
Like the slumber that creeps to me
I have never known color
Like this morning reveals to me
And you haven't moved an inch
Such that I would not know
If you sleep always like this
The flesh calmly going cold

Pré-Refrão:
  (P1)
We lay here for years or for hours
    (P2)
Your hand in my hand
So still and discreet
(P1)
So long we become the flowers
    (P2)
We'd feed well the land
And worry the sheep

Refrão:
   (R1)
And they'd find us in a week
When the cattle show fear
(R2)
After the insects have made their claim
(R2)
After the foxes have known our taste
      (R3)
I'd be home with you
      (R3)
I'd be home with you

Fuga (4x):

E|----------------|
B|----------------|
G|----------------|
D|-5~--4~--2~--0~-|
G|----------------|
D|----------------|


They'd find us in a week (Lay here for years or for hours)
When the weather gets hot (So long we become the flowers)
They'd find us in a week (Lay here for years or for hours)
When the cattle shows fear (So long we become the flowers)

Refrão:
   (R1)
And they'd find us in a week
When the buzzard get loud
(R2)
After the insects have made their claim
(R2)
After the foxes have known our taste
(R2)
After de raven has had his say
      (R3)
I'd be home with you
      (R3)
I'd be home with you
      (R3)
I'd be home with you
      (R3)
I'd be home with you
      (R3)
I'd be home with you
      (R3)
I'd be home with you

Repete a Intro.
Composición de Andrew Hozier-Byrne
Colaboración y revisión:
  • Matheus Brayner
112 vistas
    • ½ Tono
    • A
    • Bb
    • B
    • C
    • Db
    • D
    • Eb
    • E
    • F
    • F#
    • G
    • Ab
  • Agregar a la lista

    0 comentarios

    Ver todos los comentarios

    ¿Lograste tocar?

    1 Tocaron 0 Aún no

    ¡Graba un video tocando In A Week y envíanoslo!

    00:00 / 00:00
    Outros vídeos desta música
    Repetir Calidad Automático
    Outros vídeos desta música
    00:00 / 00:00
    Automático
    OK