Cifra Club

In The Woods Somewhere

Hozier

Cifrado: Principal (guitarra y guitarra eléctrica)
tono: A
[Intro e Versos]
E|-----5-5/4----------------------------------------------0-------0----------|
B|------------2-2-------5/7-7-5----------------5-----------------------------|
G|-------------------------------2/1-------4/6-------------------------------|
D|-----------------------------------------------7-7/6------6-6/7----7-------|
A|---------------------------------------------------------------------------|
E|-2-------------------------------------------------------------------------|

[Riff 1]
    F#5                          A5      F#5                          A5
E|---------------------------------------------------------------------------|
B|---------------------------------------------------------------------------|
G|------------------------------7-7-7--------------------------------7-7-7---|
D|-4---4-4--4---4-4--4---4-4----7-7-7---4---4-4--4---4-4--4---4-4----7-7-7---|
A|-4---4-4--4---4-4--4---4-4----5-5-5---4---4-4--4---4-4--4---4-4----5-5-5---|
E|-0h2-2-2--0h2-2-2--0h2-2-2------------0h2-2-2--0h2-2-2--0h2-2-2------------|

[Riff 2]
E|------------------------------|
B|------------------------------|
G|------------------------------|
D|-4---4-4--4---4-4--4---4-4----|
A|-4---4-4--4---4-4--4---4-4----|
E|-0h2-2-2--0h2-2-2--0h2-2-2----|

F#m
Her head was warm,
F#m
Her skin was soaked.
F#m                                    [Riff 2]
I called your name 'til the fever broke.

F#m
When I awoke 
F#m
The moon still hung.
F#m                                        [Riff 1]
The night so black that the darkness hummed

F#m
I raised myself. 
F#m
My legs were weak.
F#m                           [Riff 2]
I prayed my mind be good to me.

F#m
An awful noise 
F#m
Filled the air.
F#m                                    [Riff 1]
I heard a scream in the woods somewhere.

F#m
Ooooo Ooooo Ooooo 
E
Ooooo Ooooo Ooooo
D                [Riff 1]
Ooooo Ooooo Ooooo

F#m
A woman's voice!
F#m
I quickly ran 
F#m                             [Riff 2]
Into the trees with empty hands.

F#m
A fox it was, 
F#m
He shook afraid.
F#m                               [Riff 1]
I spoke no words, no sound he made.

F#m
His bone exposed,
F#m
His hind was lame.
F#m                             [Riff 2]
I raised a stone to end his pain.

F#m
What caused the wound? 
F#m
how large the teeth?
F#m                              [Riff 1]
I sure knew eyes were watching me.

F#m
Ooooo Ooooo Ooooo 
E
Ooooo Ooooo Ooooo
D                [Riff 2]
Ooooo Ooooo Ooooo

F#m
The creature lunged.
F#m
I turned and ran
F#m
To save a life I didn't have.

F#m
Deer in the chase 
F#m
There as I flew
F#m                               [Riff 1]
Forgot all prayers of joining you.

[Sem acordes]
I clutched my life
And wished it kept.
My dearest love I'm not done yet

How many years
I know I'll bear
I found something in the woods somewhere.
Composición de Andrew Hozier-Byrne
Colaboración y revisión:
  • Matheus Brayner
1.074 vistas
    • ½ Tono
    • A
    • Bb
    • B
    • C
    • Db
    • D
    • Eb
    • E
    • F
    • F#
    • G
    • Ab
  • Agregar a la lista

    0 comentarios

    Ver todos los comentarios

    ¿Lograste tocar?

    2 Tocaron 0 Aún no

    ¡Graba un video tocando In The Woods Somewhere y envíanoslo!

    00:00 / 00:00
    Outros vídeos desta música
    Repetir Calidad Automático
    Outros vídeos desta música
    00:00 / 00:00
    Automático
    OK