Cifra Club

Like Real People Do

Hozier

Cifrado: Principal (guitarra y guitarra eléctrica)
tono: G
Intro:
E|-------------0---------------------------------------------------------------|
B|----------------3------------------------------------------------------------|
G|-------------------2---0----2h4h2h0----0--------4--2--0-----------4--2--0--0-|
D|------------------------------------2-----0--------------2---0---------------|
A|----------------------------------------------2------------------------------|
E|-3--3--3--3--3--3--3--3--3--3-------3--3--3--3--3--3--3--3--3--3--3--3--3--3-|

E|-------------0---------------------------------------------------------------------|
B|----------------3------------------------------------------------------------------|
G|-------------------2--0-----2h4h2h0----0--------4--2--0------0----4--2--0--0---0---|
D|------------------------------------2-----0--------------2-------------------------|
A|----------------------------------------------2------------------------------------|
E|-3--3--3--3--3--3--3--3--3--3-------3--3--3--3--3--3--3--3--3--3--3--3--3--3--3--3-|

Estrofe:

E|-0----------------------------------------------------------------------|
B|----3--0--------------0--3--------------0--3----------------------------|
G|----------2---0----2--------2---0----2--------2---0----0--2--0--0---0---|
D|------------------------------------------------------------------------|
A|------------------------------------------------------------------------|
E|-3--3--3--3--3--3--3--3--3--3--3--3--3--3--3--3--3--3--3--3--3--3--3--3-|

I had a thought, dear
However scary
About that night
The bugs and the dirt
Why were you digging?
What did you bury
Before those hands pulled me
From the earth?

Pré-Refrão:

E|------------------------------------------------------------------------|
B|------------------------------------------------------------------------|
G|-0-----------------------------------0--------------------------0---0---|
D|----4--2--0--------0---2----0-----------4--2--0--------0--2--4----------|
A|--------------2-----------------2-----------------2---------------------|
E|-3--3--3--3--3--3--3--3--3--3--3--3--3--3--3--3--3--3--3--3--3--3--3--3-|


I will not ask you where you came from
I will not ask and neither should you


Refrão:

E|-0-------------------------------------------------------------------|
B|----3--0-------------------------------------------------------------|
G|----------2---0----4--2--0-----------4--2--0--------4--2--0--0---0---|
D|----------------------------2---0--------------2---------------------|
A|---------------------------------------------------------------------|
E|-3--3--3--3--3--3--3--3--3--3--3--3--3--3--3--3--3--3--3--3--3--3--3-|

Honey, just put your sweet lips on my lips
We should kiss like real people do

~repete tudo, mas com variação na letra~


I knew that look dear
Eyes always seeking
Was there in someone
That dug long ago
So I will not ask you
Why you were creeping
In some sad way I already know

So I will not ask you where you came from
I will not ask and neither should you

Honey, just put your sweet lips on my lips
We should just kiss like real people do

Última parte:

I could not ask you where you came from
I could not ask and neither could you

Honey just put your sweet lips on my lips
We could just kiss like real people do

Repete a intro
Composición de Andrew Hozier-Byrne
Colaboración y revisión:
  • Matheus Brayner
604 vistas
    • ½ Tono
    • A
    • Bb
    • B
    • C
    • Db
    • D
    • Eb
    • E
    • F
    • F#
    • G
    • Ab
  • Agregar a la lista

    0 comentarios

    Ver todos los comentarios

    ¿Lograste tocar?

    7 Tocaron 1 Aún no

    ¡Graba un video tocando Like Real People Do y envíanoslo!

    00:00 / 00:00
    Outros vídeos desta música
    Repetir Calidad Automático
    Outros vídeos desta música
    00:00 / 00:00
    Automático
    OK