Cifra Club

Shrike

Hozier

Cifrado: Principal (guitarra y guitarra eléctrica)
tono: C
[Intro]
 
e|3----5h8-5h8p5-3p0-----------------|------0-------0--------0-------0|
B|--------------------2/4---2p0-2/4-2| 2---2---2---2----2---2----2--2--|
G|-----------------------------------|--------------------------------|
D|-----------------------------------|--------------------------------|
A|-----------------------------------|--------------------------------|
C|0--0-----0-----0----0---0-----0----|2-2-----2-2------2-2------2-----|
 
E|----0h3-0h3p0----------------|------------------------------------|
C|2-------------2p0-5p4-2p0----|--------0------------0-----------0--|
G|--------------------------2p0|------------------------------------|
D|-----------------------------|--0h2h4---4--4/7-2-2---2p0----------|
A|-----------------------------|---------------------------2p0------|
C|2-2-----2-----2p0------------|0------------0---0-------------0---0|
 
e|3----5h8-5h8p5-5p3-----------------|------0-------0-------------|
B|--------------------2/4---2p0-2/4-2| 2---2---2---2----2p0---0---0|
G|-----------------------------------|----------------------------|
D|-----------------------------------|----------------------------|
A|-----------------------------------|----------------------------|
C|0--0-----0-----0----0---0-----0----|2-2-----2-2------2---2---2--|
 
E|----0-------0-----0------|----------------------------------|
B|----2/4-----2-----2/4\2p0|--------0------------0---------0--|
G|2p0-0---2p0-0-----0------|----------------------------------|
D|----2/4-----2-----2/4\2p0|--0h2h4---4--4/7-2-2---2p0-0------|
A|----0-------0-----0------|----------------------------------|
E|-------------------------| 0------------0---0-----------0---0|
 
[Verso]
 
E|------------|------0---------0---------0---------0--|
C|7----7-----4|2---2---2-2---2---2-2---2---2-2---2---2|
G|------------|---------------------------------------|
D|------------|---------------------------------------|
A|------------|---------------------------------------|
C|0----0-----0|2-2-------2-2-------2-2-------2-2------|
 
E|------0---------0-----|------------------------------------------|
C|2---2-----2---2---5--0|--------0------------0-------------0------|
G|----------------------|------------------------------------------|
D|------------------5--0|--0h2h4---4--4/7-2-2---0h2p0---------0h2p0|
A|----------------------|-----------------------------2p0----------|
C|2-2-------2-2-----5--0|0------------0---0---------------0--------|
 
E|------------|------0---------0---------0---------0--|
C|7----7-----4|2---2---2-2---2---2-2---2---2-2---2---2|
G|------------|---------------------------------------|
D|------------|---------------------------------------|
A|------------|---------------------------------------|
C|0----0-----0|2-2-------2-2-------2-2-------2-2------|
 
E|------0---------0--------|------------------------------------------|
C|2---2-----2---2---5---5-0|--------0------------0--------------------|
G|-------------------------|------------------------------------------|
D|------------------5-5---0|--0h2h4---4--4/7-2-2---2h4p2p0-0h2p0-0-2p0|
A|-------------------------|------------------------------------------|
C|2-2-------2-2-----5-----0|0------------0---0------------------------|
 
[Refrão]
 
E|-------------------------------|---------------------------------------|
B|------0-------0-------0-------0|------0---------0---------0---------0--|
G|----0-------4-------4-------5--|----0---0-----0---0-----0---0-----0---0|
D|-------------------------------|---------------------------------------|
G|2-2-----4-4-----4-4-----5-5----|---------------------------------------|
E|-------------------------------| 5-5-------5-5-------5-5-------5-5------|
 
E|-------------------------------|---------------------------------------|
B|------0-------0-------0-------0|------0---------0---------0---------0--|
G|----0-------0-------0-------0--|----0---0-----0---0-----0---0-----0---0|
D|-------------------------------|---------------------------------------|
G|5-5-----4-4-----4-4-----5-5----|2-2-------2-2-------2-2-------2-2------|
E|-------------------------------|---------------------------------------|
 
E|-------------------------------|----0-------0-------0-------0--|----0-------0-----0------|
B|------0-------0-------0-------0|--0---0---0---0---0---0---0---0|----2/4-----2-----2/4\2p0|
G|----0-------4-------4-------5--|-------------------------------| 2p0-0---2p0-0-----0------|
D|-------------------------------|-------------------------------|----2/4-----2-----2/4\2p0|
G|2-2-----4-4-----4-4-----5-5----|-------------------------------|----0-------0-----0------|
E|-------------------------------| 5-------5-------5-------5------|-------------------------|
 
[Intro]
 
e|3----5h8-5h8p5-5p3-----------------|------0-------0--------0-------0|
B|--------------------2/4---2p0-2/4-2| 2---2---2---2----2---2----2--2--|
G|-----------------------------------|--------------------------------|
D|-----------------------------------|--------------------------------|
A|-----------------------------------|--------------------------------|
C|0--0-----0-----0----0---0-----0----|2-2-----2-2------2-2------2-----|
 
E|----0-------0-----0------|--------------------------------------|
B|----2/4-----2-----2/4\2p0|--------0------------0-------------0--|
G|2p0-0---2p0-0-----0------|--------------------------------------|
D|----2/4-----2-----2/4\2p0|--0h2h4---4--4/7-2-2---2h4p2p0-0-0---0|
A|----0-------0-----0------|--------------------------------------|
E|-------------------------| 0------------0---0--------------------|
 
[Verso]
 
E|-----------------------|------0-------0-------0-------0|
C|7-----7-7-----7-4-----4|2---2---2---2---2---2---2---2--|
G|----0-------0-------0--|-------------------------------|
D|-----------------------|-------------------------------|
A|-----------------------|-------------------------------|
C|0-0-----0-0-----0-0----|2-2-----2-2-----2-2-----2-2----|
 
E|------0---------0--------|--------------------------------------------|
C|2---2-----2---2---5-----5|--------0------------0---------------0------|
G|-------------------------|--------------------------------------------|
D|------------------5---5--|--0h2h4---4--4/7-2-2---2h4p2p0---------0h2p0|
A|-------------------------|-------------------------------2p0----------|
C|2-2-------2-2-----5-5----|0------------0---0-----------------0--------|
 
E|-----------------------|------0-------0-------0-------0|
C|7-----7-7-----7-4-----4|2---2---2---2---2---2---2---2--|
G|----0-------0-------0--|-------------------------------|
D|-----------------------|-------------------------------|
A|-----------------------|-------------------------------|
C|0-0-----0-0-----0-0----|2-2-----2-2-----2-2-----2-2----|
 
E|------0---------0--------|------------------------------------------|
C|2---2-----2---2---5-----5|--------0------------0-------------0------|
G|-------------------------|------------------------------------------|
D|------------------5---5--|--0h2h4---4--4-4p2-2---2h4p2p0-0-0---0h2p0|
A|-------------------------|------------------------------------------|
C|2-2-------2-2-----5-5----|0------------0--0-------------------------|
 
[Refrão]
 
E|-------------------------------|---------------------------------------|
B|------0-------0-------0-------0|------0---------0---------0---------0--|
G|----0-------4-------4-------5--|----0---0-----0---0-----0---0-----0---0|
D|-------------------------------|---------------------------------------|
G|2-2-----4-4-----4-4-----5-5----|---------------------------------------|
E|-------------------------------| 5-5-------5-5-------5-5-------5-5------|
 
E|-------------------------------|---------------------------------------|
B|------0-------0-------0-------0|------0---------0---------0---------0--|
G|----0-------0-------0-------0--|----0---0-----0---0-----0---0-----0---0|
D|-------------------------------|---------------------------------------|
G|5-5-----4-4-----4-4-----5-5----|2-2-------2-2-------2-2-------2-2------|
E|-------------------------------|---------------------------------------|
 
E|-------------------------------|----0-------0-------0-------0--|----0-------0-----0------|
B|------0-------0-------0-------0|--0---0---0---0---0---0---0---0|----2/4-----2-----2/4\2p0|
G|----0-------4-------4-------5--|-------------------------------| 2p0-0---2p0-0-----0------|
D|-------------------------------|-------------------------------|----2/4-----2-----2/4\2p0|
G|2-2-----4-4-----4-4-----5-5----|-------------------------------|----0-------0-----0------|
E|-------------------------------| 5-------5-------5-------5------|-------------------------|
 
[Intro]
 
e|3----5h8-5h8p5-5p3-----------------|------0-------0--------0-------0|
B|--------------------2/4---2p0-2/4-2| 2---2---2---2----2---2----2--2--|
G|-----------------------------------|--------------------------------|
D|-----------------------------------|--------------------------------|
A|-----------------------------------|--------------------------------|
C|0--0-----0-----0----0---0-----0----|2-2-----2-2------2-2------2-----|
 
E|----0h3-0h3p0----------------|---------------------------------------|
C|2-------------2p0-5p4-2p0----|--------0-----------0---------------0--|
G|--------------------------2p0|---------------------------------------|
D|-----------------------------|--0h2h4---4--4/7-2----2h4p2p0----------|
A|-----------------------------|------------------------------2p0------|
C|2-2-----2-----2p0------------|0------------0---0----------------0---0|
 
e|3----5h8-5h8p5-5p3-----------------|------0-------0-------------|
B|--------------------2/4---2p0-2/4-2| 2---2---2---2----2p0---0---0|
G|-----------------------------------|----------------------------|
D|-----------------------------------|----------------------------|
A|-----------------------------------|----------------------------|
C|0--0-----0-----0----0---0-----0----|2-2-----2-2------2---2---2--|
 
E|----0-------0-----0------|--------------------------------------|
B|----2/4-----2-----2/4\2p0|--------0------------0-------------0--|
G|2p0-0---2p0-0-----0------|--------------------------------------|
D|----2/4-----2-----2/4\2p0|--0h2h4---4--4/7-2-2---2h4p2p0-0------|
A|----0-------0-----0------|--------------------------------------|
E|-------------------------| 0------------0---0---------------0---0|
 
[Verso]
 
E|------------|----0-----0-----0-----0-----0-----0-----0-----0|
C|7----7-----4|--2-----2-----2-----2-----2-----2-----2-----2--|
G|------------|-----------------------------------------------|
D|------------|-----------------------------------------------|
A|------------|-----------------------------------------------|
C|0----0-----0|2-----2-----2-----2-----2-----2-----2-----2----|
 
E|----0-----0-----0-----0-----0-----0-----0-----0|-----------------------------------------------|
B|--2-----2-----2-----2-----2-----2-----5-----5--|----0-----0-----0-----0-----0-----0-----0-----0|
G|-----------------------------------------------|--0-----0-----0-----0-----0-----0-----0-----0--|
D|-----------------------------------------------|-----------------------------------------------|
A|-----------------------------------------------|-----------------------------------------------|
C|2-----2-----2-----2-----2-----2-----5-----5----|0-----0-----0-----0-----0-----0-----0-----0----|
 
E|------------|----0-----0-----0-----0-----0-----0-----0-----0|
C|7----7-----4|--2-----2-----2-----2-----2-----2-----2-----2--|
G|------------|-----------------------------------------------|
D|------------|-----------------------------------------------|
A|------------|-----------------------------------------------|
C|0----0-----0|2-----2-----2-----2-----2-----2-----2-----2----|
 
E|----0-----0-----0-----0-----0-----0-----0-----0|----------------------------------------|
B|--2-----2-----2-----2-----2-----2-----5-----5--|--------0------------0-----------0------|
G|-----------------------------------------------|----------------------------------------|
D|-----------------------------------------------|--0h2h4---4--4/7-2-2---2h4p2p0-0---0h2p0|
A|-----------------------------------------------|----------------------------------------|
C|2-----2-----2-----2-----2-----2-----5-----5----|0------------0---0----------------------|
 
[Refrão]
 
E|-------------------------------|---------------------------------------|
B|------0-------0-------0-------0|------0---------0---------0---------0--|
G|----0-------4-------4-------5--|----0---0-----0---0-----0---0-----0---0|
D|-------------------------------|---------------------------------------|
G|2-2-----4-4-----4-4-----5-5----|---------------------------------------|
E|-------------------------------| 5-5-------5-5-------5-5-------5-5------|
 
E|-------------------------------|---------------------------------------|
B|------0-------0-------0-------0|------0---------0---------0---------0--|
G|----0-------0-------0-------0--|----0---0-----0---0-----0---0-----0---0|
D|-------------------------------|---------------------------------------|
G|5-5-----4-4-----4-4-----5-5----|2-2-------2-2-------2-2-------2-2------|
E|-------------------------------|---------------------------------------|
                                                                                    v
E|-------------------------------|----0-------0-------3-------0--|----0-------0-----0-------0|
B|------0-------0-------0-------0|--0---0---0---0---0---0---0---0|----2/4-----2-----2/4\2p0-0|
G|----0-------4-------4-------5--|-------------------------------| 2p0-0---2p0-0-----0-------0|
D|-------------------------------|-------------------------------|----2/4-----2-----2/4\2p0-0|
G|2-2-----4-4-----4-4-----5-5----|-------------------------------|----0-------0-----0-------0|
E|-------------------------------| 5-------5-------5-------5------|--------------------------0|
Composición de Andrew Hozier-Byrne
Colaboración y revisión:
  • Victor Molina
17 vistas
    • ½ Tono
    • A
    • Bb
    • B
    • C
    • Db
    • D
    • Eb
    • E
    • F
    • F#
    • G
    • Ab
  • Agregar a la lista

    0 comentarios

    Ver todos los comentarios

    ¿Lograste tocar?

    0 Tocaron 0 Aún no

    ¡Graba un video tocando Shrike y envíanoslo!

    00:00 / 00:00
    Outros vídeos desta música
    Repetir Calidad Automático
    Outros vídeos desta música
    00:00 / 00:00
    Automático
    OK