Cifra Club

Someone New

Hozier

Cifrado: Principal (guitarra y guitarra eléctrica)
tono: C
Intro: G  Bm  C  Em  D  Bm  C

Parte 1

E|----------------------------------------------------|
B|----------------------------------------------------|
G|---0------------------0----4------------------0-----|
D|--------------2-----0-----------------2-----0-------|
A|-------0-2--3------------------0-2--3---------------|
E|-3---3----------0-3------3---3----------0-3---------|

Parte 2 (2x)

   G      Bm   C       D5
E|-----------x-0-0-------x------------------|
B|-0-0-----3-x-1-1-----3-x------------------|
G|-0-0-----4-x-0-0-----2-x------------------|
D|-0-0-------x---------0-x------------------|
A|-------0-2-x-3---------x------------------|
E|-3---3-----x-----0-3---x------------------| 
     ↓           ↓

Primeira Parte:

G                    Bm  C
  Go and take this the wrong way
D5           Em     D
   You knew,    who I was
         Bm             C
With every step that I ran to you

G           Bm      C        D5
  Only blue    or black days
  Em              D
Electing strange perfections 
     G          C
In any stranger I choose

Primeira Parte:

Parte 1

   G      Bm   C       D5
E|-----------x-0-0--------------------------|
B|-0-0-----3-x-1-1-----3-3------------------|
G|-0-0-----4-x-0-0-----2-2------------------|
D|-0-0-------x---------0-0------------------|
A|-------0-2-x-3----------------------------|
E|-3---3-----x-----0-3----------------------|
     ↓           ↓       ↓

Parte 2

     Em    D    Bm     C
E|-----7-x---------2-x-0-0------------------|
B|-----8-x-7-7-----3-x-1-1------------------|
G|-----9-x-7-7-----4-x-0-0------------------|
D|-------x-7-7-------x----------------------|
A|-3/7---x-5---0-2---x-3--------------------|
E|-------x-----------x-----0----------------|
             ↓           ↓

Parte 3

   G      Bm   C       D5
E|-----------x-0-0--------------------------|
B|-0-0-----3-x-1-1-----3-3------------------|
G|-0-0-----4-x-0-0-----2-2------------------|
D|-0-0-------x---------0-0------------------|
A|-------0-2-x-3----------------------------|
E|-3---3-----x-----0-3----------------------|
     ↓           ↓       ↓

Parte 4

     Em    D     G    C
E|-----7-x---------2-x-0-0------------------|
B|-----8-x-7-7-----3-x-1-1------------------|
G|-----9-x-7-7-----4-x-0-0------------------|
D|-------x-7-7-------x----------------------|
A|-3/7---x-5---------x-3--------------------|
E|-------x-----0-3---x----------------------|
             ↓           ↓

Pré-refrão:

C7                 Bm7
   Would things be easier
                Em7
If there was a right way
        Dm7              C7
Honey there is no right way

Pré-refrão:

   C7      Bm7      Em7     Dm7   C7
E|---3---x---2---2------6-x-5-5-----3-x-3-3-|
B|-5-5-5-x-3-3---3------7-x-6-6-----5-x-5-5-|
G|-3-3-3-x-2-2---2------6-x-5-5-----3-x-3-3-|
D|-5-5-5-x-4-4---4--------x---7-------x---5-|
A|-3---3-x-2---2----5/7---x-5---0-3---x-----|
E|-------x----------------x-----------x-----|
     ↓       ↓   ↓            ↓           ↓

Refrão:
           G
And so, I fall in love just a little
Bm         C
Oh little bit
                  D
Everyday with someone new
G
I fall in love just a little
Bm         C
Oh little bit
                  D
Everyday with someone new
G
I fall in love just a little
Bm         C
Oh little bit
                  D
Everyday with someone new
G
I fall in love just a little
Bm         C
Oh little bit
                  D
Everyday with someone new

Segunda Parte:

G                      Bm       C
  There's an art to life's distraction
D5      Em          D
   Somehow escape the burning weight
    Bm        C
The art of scraping through

G              Bm   C     D5
  Some like to    imagine
     Em         D
The dark caress of someone else
    Bm              C
I guess any thrill will do

Pré-refrão:

C7                 Bm7
   Would things be easier
                Em7
If there was a right way
        Dm7        C7
Honey there is no right way

Refrão:
           G
And so, I fall in love just a little 
Bm         C
Oh little bit
                  D
Everyday with someone new
G
I fall in love just a little
Bm         C
Oh little bit
                  D
Everyday with someone new
G
I fall in love just a little
Bm         C
Oh little bit
                  D
Everyday with someone new
G
I fall in love just a little
Bm         C
Oh little bit
                  D
Everyday with someone new

Terceira Parte:

   Am                          Em
I wake at the first cringe of morning
C7      B7           Em
   And my heart's already sinned
     C7                   B7
How pure, how sweet your love Aretha
 Em
You would pray for him

Refrão – Variação:

'Cause God knows
   Am
I fall in love just a little 

Oh little bit

Everyday with someone new
   Em
I fall in love just a little

Oh little bit

Everyday with someone new
   Am
I fall in love just a little

Oh little bit

Everyday with someone new
   Em
I fall in love just a little 

Oh, little bit

Everyday with someone new
   C
I fall in love just a little

Oh little bit
C7
Everyday with someone new
   Bm
I fall in love just a little

Oh little bit
D
Everyday

Quarta Parte:

G                    Bm
  Love with every stranger
C                       D
  The stranger, the better
G                    Bm
  Love with every stranger
C                       D
  The stranger, the better
G                    Bm
  Love with every stranger
C                       D
  The stranger, the better
G                    Bm
  Love with every stranger
C                       D
  The stranger, the better

Refrão Final:

       G
Oh, I fall in love just a little 
Bm         C
Oh little bit
                  D
Everyday with someone new
G
I fall in love just a little
Bm         C
Oh little bit
                  D
Everyday with someone new
G
I fall in love just a little
Bm         C
Oh little bit
                  D
Everyday with someone new
G
I fall in love just a little
Bm         C
Oh little bit

Everyday with someone new
Composición de Andrew Hozier-Byrne
Colaboración y revisión:
1.907 vistas
    • ½ Tono
    • A
    • Bb
    • B
    • C
    • Db
    • D
    • Eb
    • E
    • F
    • F#
    • G
    • Ab
  • Agregar a la lista

    0 comentarios

    Ver todos los comentarios

    ¿Lograste tocar?

    8 Tocaron 4 Aún no

    ¡Graba un video tocando Someone New y envíanoslo!

    00:00 / 00:00
    Outros vídeos desta música
    Repetir Calidad Automático
    Outros vídeos desta música
    00:00 / 00:00
    Automático
    Capítulos
    • Tocando a música
    • Dicas Iniciais / Equipamentos
    • Acordes da Introdução
    • Tocando a Introdução
    • Introdução - Parte 1 de 2
    • Introdução - Parte 2 de 2
    • Acordes da Primeira Parte
    • Tocando a Primeira Parte
    • Primeira Parte - Parte 1 de 4
    • Primeira Parte - Parte 2 de 4
    • Primeira Parte - Parte 3 de 4
    • Primeira Parte - Parte 4 de 4
    • Acordes do Pré-Refrão
    • Tocando o Pré-Refrão
    • Pré-Refrão
    • Acordes do Refrão
    • Tocando o Refrão
    • Ritmo do Refrão
    • Acordes da Terceira Parte
    • Tocando a Terceira Parte
    • Ritmo da Terceira Parte
    • Dicas 2
    • Tocando o Final
    • Encerramento
    • Ficha Técnica
    OK