Cifra Club

To Be Alone (solo)

Hozier

Cifrado: Principal (guitarra y guitarra eléctrica)
tono: F
Opening Bass Line 

G|----------------------------------------------------| 
D|----------------------------------------------------| 
A|----------------------------------------------------| 
E|-1-1-1-1-1-1-1-1-1-1-1-1-1-1-1-1-1-1-1-1-1-1-1-1

Verse Riff 
                                        
                                          (Brackets Repeat) 
E|------4---------------------------------------------|
B|-4-6~---6~--4-----------4---------------------------| 
G|--------------5-3~~--3h5--3~~~~~~3h4p3-----(--3-----| 
D|---------------------------------------6-3-(6---6-3| 
A|----------------------------------------------------|
E|----------------------------------------------------|

Verse Closing 

E|----------------------------------------------------|
B|----------------------------------------------------|
G|----------------------------------------------------|
D|-2h3p2h3p2h3p2h3------------------------------------|
A|----------------------------------------------------|
E|----------------------------------------------------|



verse 1 
(Verse Riff & Bass) 

Never feel too good in crowds, 
With folks around 
When they're playing 
The anthems of rape culture loud, 
Crude and proud 
Creatures baying 
All I've ever done is hide 
From our times 
When you're near me 
Honey, when you kill the lights 
And kiss my eyes 
I feel like a person for a moment of my life 

Bridge #1 

F
But you don't know what hell you put me through 
F
To have someone kiss the skin that crawls from you 
F
To feel your weight in arms I'd never use 
F                                  G# - Bb
It's the god that heroin prays to 

Chorus #1 

F                             G# - Bb
It feels good, girl, it feels good 
F                             G# - Bb
It feels good, girl, it feels good  
F                             G# - Bb
It feels good, girl, it feels good  
F
Oh to be alone with you 


(Verse Bass & Verse Riff while singing notes) 


Verse #2  
(Verse Riff & Bass) 

There are questions I can't ask 
Now at last 
The worst is over 
See the way you hold yourself 
Reel against 
Your body's borders 
I know that you hate this place 
Not a trace 
Of me would argue 
Honey, we should run away 
Oh someday 
Our baby and her momma 
And the damaged love she make 

Bridge #2 

F
But I don't know what else that I would give 
F
Than try to kiss the skin that crawls from you 
F
Then feel your weight in arms I'd never use 
F
It's the god that heroin prays to 

Chorus #2 

(G# Bb)

F                              G# - Bb
It feels good, girl, it feels good 
F                             G# - Bb
It feels good, girl, it feels good  
F                              G# - Bb
It feels good, girl, it feels good  
F
Oh to be alone with you 

(Verse Bass & Verse Riff w/ humming notes) 

Chorus #3 

F                              G# - Bb
It feels good, girl, it feels good 
F                             G# - Bb
It feels good, girl, it feels good  
F                              G# - Bb
It feels good, girl, it feels good  
F
Oh to be alone with you
Compositor não encontrado.
Colaboración y revisión:
  • fabiola trancoso
  • Cláudio Pinto
505 vistas
    • ½ Tono
    • A
    • Bb
    • B
    • C
    • Db
    • D
    • Eb
    • E
    • F
    • F#
    • G
    • Ab
  • Agregar a la lista

    0 comentarios

    Ver todos los comentarios

    ¿Lograste tocar?

    4 Tocaron 2 Aún no

    ¡Graba un video tocando To Be Alone (solo) y envíanoslo!

    00:00 / 00:00
    Outros vídeos desta música
    Repetir Calidad Automático
    Outros vídeos desta música
    00:00 / 00:00
    Automático
    OK