Cifra Club

Bandidaça

Hugo Pena e Gabriel

Cifrado: Principal (guitarra y guitarra eléctrica)
tono: G
  G
Ela me convidou pra sair
Em
de cara eu disse, Já topei
 C                Am  
Cai na sua isca, mais um na sua lista
 D 
Por causa dela eu me ferrei 
 G
Marquei a hora e o lugar
Em 
Pra gente então se encontrar
C
Mas ela deu o cano 
Am
Chegou me esnobando 
D
Com outro cara em meu lugar
     G
Bandidaça
       D
Brincou comigo e de pirraça
      Em                   C
ainda me desmontou, nem cachaça
           Am                        D
Me faz sorrir depois do mau que você me causou    ououooh!
      G
Bandidaça
          D                           Em
Fiquei de porre, arrependido o golpe foi fatal
      C             Am                         D
Vê se pode, o nosso caso nunca teve um dom de amor real

----------7-------------8-7-8----12-10-8-7-8------
-8-8-8-10---8-8-8-10-8--------8--------------10---
--------------------------------------------------
--------------------------------------------------
--------------------------------------------------
--------------------------------------------------

--14--12--10--8-------
-----------------10---
--11--9---7---5-------
-----------------7----
----------------------
----------------------


====================================================================

2ª Versão

HUGO PENA E GABRIEL - BANDIDAÇA
Intr: (F#7 G) 2x

  G                       D/F#  Em
Ela me convidou pra sair... de cara eu disse, Já topei
  C                   Am
Cai na sua isca, mais um na sua lista
     D                    D7
Por causa dela eu me ferrei 
     G                    D/F#   Em
Marquei a hora e o lugar... Pra gente então se encontrar
    C                   Am
Mas ela deu o cano, Chegou me esnobando 
    D                    D7
Com outro cara em meu lugar

      G                  D/F#                       Em
Bandidaça..., Brincou comigo e de pirraça ainda me desmontou,
        C               Am                         D          D7
Nem cachaça, Me faz sorrir depois do mau que você me causou ouou...
      G                  D/F#                       Em
Bandidaça..., Fiquei de porre, arrependido o golpe foi fatal
       C             Am                         D         D7
Vê se pode, o nosso caso nunca teve um dom de amor real...


SOLO: G - D/F# - Em - C - Am - D - D7

(Cifra e Solo por Aldo Thales da dupla João Paulo e Gabriel)
   G                  D/F# Em
e|---------------------|-------------------|
B|-8~-8~-8~-10-10/12~~-|-8~-8~-8~-8h10-8~~-|
G|---9--9--------------|---9--9------------|
D|---------------------|-------------------|
A|---------------------|-------------------|
E|---------------------|-------------------|

   C                  Am              D          D7
e|-8p7h8-----10/12-10-8-7-8------|----14-12-10-8------|
B|-------8~~----------------10~~-|-/15-----------10~~-|
G|-------------------------------|--------------------|
D|-------------------------------|--------------------|
A|-------------------------------|--------------------|
E|-------------------------------|--------------------|

DO COMEÇO AO FIM

REFRÃO 2X

SOLO: G - D/F# - Em - C - Am - D - D7

Intr: (F#7 G) 2x
00:00 / 00:00
Otros videos de esta canción
Repetir
Otros videos de esta canción
Compositor no encontrado.
Colaboración y revisión:
  • Aldo Silva
  • flavio neto
86 exhibiciones
    • ½ Tono
    • A
    • Bb
    • B
    • C
    • Db
    • D
    • Eb
    • E
    • F
    • F#
    • G
    • Ab
  • Agregar a la lista
    00:00 / 00:00
    OK