Enviar cifraEntrar

Vou Te Amar (Cigana)

Hugo Pena e Gabriel

Acordes: Principal
reproducciones 428
Tono: A
(intro)

(dedilhado ou palhetada durante a parte 1)


    A               A             F#m             F#m
E|-------------------------------------------------------------|
B|---------2---------------2-------------2---------------2-----|
G|-----2-----2---2-----2-----2-------2-----2---2-----2-----2---|
D|---2---2-----2-----2---2-----2-------4-----4---------4-----4-|
A|-0---------------0---------------4---------------4-----------|
E|-------------------------------2---------------2-------------|


    D               D             A                 E
E|---------2---------------2---------------------------0-|
B|-----3-----3---3-----3-----3-----------2-----2-0-----0-|
G|---2---2-----2-----2---2-----2-----2-----2-------------|
D|-0---------------0---------------2---2-----2-------2---|
A|-------------------------------0-----------------2-----|
E|-------------------------------------------------------|


(parte 1)
 A
Um dia uma cigana leu a minha mão
    F#m
Falou que o destino do meu coração
D                                      A  E
Daria muitas voltas, mas ia encontrar você

A
Eu confesso que na hora duvidei
    F#m
Lembrei de quantas vezes eu acreditei
D                                       A
Mas não dava certo, não era pra acontecer

(pré-refrão - parte 1)

(A   Ab) F#m                C#m
Foi só você chegar, pra me convencer
          D                    Dm               A  Ab
Estava escrito nas estrelas, que eu ia te conhecer
(A   Ab) F#m                    C#m
Foi só você me olhar, que eu me apaixonei
         D              Dm
Valeu a pena esperar, esse é o grande amor,
        E
Que eu sempre sonhei

(refrão)
         A              F#m
Vou te amar, pra sempre vou te amar
 D                                  A  E
Quero seu carinho, sua boca pra beijar
         A              F#m
Vou te amar, pra sempre vou te amar
 D                     Bm              A
Tudo que eu preciso, só você pode me dar

(solo) A (A Ab) F#m D Dm A


E|-------------------------------------------------------------|
B|-10-8h10-8-10/12-10-8~-8h10-8-10/12-10-8~-10/12-10p12-12-10~-|
G|-------------------------------------------------------------|
D|-------------------------------------------------------------|
A|-------------------------------------------------------------|
E|-------------------------------------------------------------|


(pré-refrão)

(refrão 2x)

         A              F#m
Vou te amar, vou te amaaaar
 D                 Dm                A  E
Quero seu carinho, sua boca pra beijar
         A              F#m
Vou te amar, vou te amaaaar
 D                     Bm              A E
Tudo que eu preciso, só você pode me dar

A
Um dia uma cigana leu a minha mão!
  • 1
  • 2
  • 3
  • 4
  • 5
  • 6
  • 7
  • 8
  • 9
  • 10
  • 11
  • 12
    Acordes para:

      0 comentarios

        mostrar mas comentarios

        ¿Conseguiste tocar?

        45tocaron0aún no

        ¡Grave un vídeo tocando Vou Te Amar (Cigana) y envie para nosotros!

        00:00 / 00:00
        outros vídeos desta música
        repetirqualidadeautomática
        • automática
        Outro vídeos desta música
          00:00 / 00:00
          automática
          • automática
          Acordes para:guitarra
          dificuldadreproduccionescontribuciones
          cerrarplay/pause subir/bajar velocidad
            acordes
            cerrar
            OK
            Feedback