Cifra Club

Estrela

Hugo Pena e Gabriel

Tablatura: Principal (guitarra)
reproducciones 486
Tono: E
(dedilhado intro)

(1ª parte)
    E9
E|--------------------2---------------------|
B|--5-----4-----5-----------5---------------|
G|----4-----4-----4-----4-----4-------------|
D|------2-----2-----2-----2-----2-----------|
A|------------------------------------------|
E|--0---------------------------------------|

(2ª parte)
     A9
E|------------------------------------------|
B|--5-----4-----0---------------------------|
G|----4-----4-------------------------------|
D|------2-----2-----------------------------|
A|--0---------------------------------------|
E|------------------------------------------|

(1ª parte)
     E9
E|--------------------2---------------------|
B|--5-----4-----5-----------5---------------|
G|----4-----4-----4-----4-----4-------------|
D|------2-----2-----2-----2-----2-----------|
A|------------------------------------------|
E|--0---------------------------------------|

(2ª parte com alteração)
     A9
E|------------------------------------------|
B|--5-----4-----0---------------------------|
G|----4-----4-------------------------------|
D|------2-----2---------2h4-----------------|
A|--0---------------2h4---------------------|
E|------------------------------------------|

(primeira parte)

(primeira estrofe)
E
  Sempre quando chega a noite
A9
Estrelas vem iluminar
E
  E me fazem sonhar
  A9
Imaginar você aqui
              B4
Preciso de você
             E9   A9
Só pra me guiar

(dedilhado primeira estrofe)

1ª parte)
    E              A9
E|---0---0---0------0---0---0---------------|
B|---0---0---0------0---0---0---------------|
G|-----1---1---1------1---1---1-------------|
D|------------------------------------------|
A|----------------0-------------------------|
E|-0----------------------------------------|

    E              A9
E|---0---0---0------0---0---0---------------|
B|---0---0---0------0---0---0---------------|
G|-----1---1---1------1---1-----------------|
D|------------------------------------------|
A|----------------0-------------2h4---------|
E|-0----------------------------------------|

2ª parte)
     A9
E|--------------0---------------------------|
B|--------0-----------0---------------------|
G|------2---2-----2-----2-------------------|
D|----2-------2-----2-----2-----------------|
A|--0---------------------------------------|
E|------------------------------------------|

     B4
E|--------------0---------------------------|
B|--------0-----------0---------------------|
G|------4---4-----4-----4-------------------|
D|----4-------4-----4-----4-----------------|
A|--2---------------------------------------|
E|------------------------------------------|

(repete intro)

(segunda estrofe)
E9
  Minha estrela não se esconda
 A9
Pois sei que eu vou te encontrar
E9                    A9
  Vamos viajar e acender de vez
                              B4
A nossa paixão virar constelação
            E  A9  B4  A9
Num só coração

(dedilhado segunda estrofe)
     E9
E|--------------0---------------------------|
B|--------0-----------0---------------------|
G|----------1-----1-----1-------------------|
D|------4-----4-----4-----4-----------------|
A|----2-------------------------------------|
E|--0---------------------------------------|

     A9
E|--------------0---------------------------|
B|--------0-----------0---------------------|
G|------2---2-----2-----2-------------------|
D|----2-------2-----2-----2-----------------|
A|--0---------------------------------------|
E|------------------------------------------|

     E9
E|--------------0---------------------------|
B|--------0-----------0---------------------|
G|----------1-----1-----1-------------------|
D|------4-----4-----4-----4-----------------|
A|----2-------------------------------------|
E|--0---------------------------------------|

     A9
E|--------------0---------------------------|
B|--------0-----------0---------------------|
G|------2---2-----2-----2-------------------|
D|----2-------2-----2-----2-----------------|
A|--0------------------------2h4------------|
E|------------------------------------------|

(repete 2ª parte do dedilhado da primeira estrofe)

(final)
     E        A9
E|------0------------0----------------------|
B|--------0--------0---0--------------------|
G|---------------2-------2------------------|
D|-------------2----------------------------|
A|----2------0------------------------------|
E|--0---------------------------------------|

     B4       A9
E|------0------------0----------------------|
B|--------0--------0---0--------------------|
G|---------------2-------2------------------|
D|----4--------2----------------------------|
A|--2--------0------------------------------|
E|------------------------------------------|

(refrão)
    E                B9
Estrela por favor escute
                   C#m
O que eu vou falar
           A9                       E
Quero te amar mesmo que o sol aparecer
              B9                 C#m
Eu não vou mudar mais de opinião
                A9
Não me deixe aqui no chão

(intro)

(repetição)
E
  Minha estrela não se esconda
 A9
Pois sei que eu vou te encontrar
E                     A9
  Vamos viajar e acender de vez
                              B9
A nossa paixão virar constelação
            E  A9  B9  A9
Num só coração

(refrão)
    E                B9
Estrela por favor escute
                   C#m
O que eu vou falar
           A9                       E
Quero te amar mesmo que o sol aparecer
              B9                 C#m
Eu não vou mudar mais de opinião
                A9
Não me deixe aqui no chão

    E                B9
Estrela por favor escute
                   C#m
O que eu vou falar
           A9                       E
Quero te amar mesmo que o sol aparecer
              B9                 C#m
Eu não vou mudar mais de opinião
                A9
Não me deixe aqui no chão
B7(4/9)
  Estrela do meu coração

(intro)  E9
Acordes para:

    0 comentarios

    mostrar más comentarios

    ¿Conseguiste tocar?

    52 tocaron 1 aún no

    ¡Graba un vídeo tocando Estrela y envianoslo!

    00:00 / 00:00
    outros vídeos desta música
    repetir qualidade Automático
    Outros vídeos desta música
    00:00 / 00:00
    Automático
    Capítulos
    • Início
    • Dicas inciais
    • Acordes da introdução
    • Tocando introdução
    • Ensinando dedilhado da intro (parte 1)
    • Ensinando dedilhado da intro (parte 2)
    • Ensinando dedilhado da intro (parte 2 - alteração)
    • Tocando introdução (tablatura)
    • Acordes da primeira parte
    • Tocando primeira parte
    • Ensinando dedilhado da primeira parte (parte 1)
    • Ensinando dedilhado da primeira parte (parte 2)
    • Ensinando dedilhado (segunda estrofe)
    • Ensinando dedilhado do final (primeira parte)
    • Tocando dedilhado primeira parte (tablatura)
    • Acordes do refrão
    • Tocando refrão
    • Ensinando ritmo (padrão)
    • Tocando ritmo do refrão
    • Dicas para repetição
    • Tocando trecho (repetição)
    • Ensinando ritmo da repetição
    • Acordes e dicas finais
    • Tocando trecho final
    • Tocando a música
    • Encerramento
    OK