Cifra Club

Eu Sem Você

Hugo Pena e Gabriel

Cifrado: Principal (guitarra y guitarra eléctrica)
tono: A
Intro: A  D  A  D  A  A  A4  A  D  D4  D  A  E7  A  D  A

E|--------------------------------------------------------|
B|--------------------------------------------------------|
G|--------------------------------------------------------|
D|--------------------------------------------------------|
A|---0-0--2--4--4-----0-0--2--4--5-5-5-4--2---0-0---------|
E|-0---------------0-------------------------------0--2---|

(acordeon)

E|--14-14-14-12-10--9--12-12-12-10--9-7--10-10-10--9-7--9-|
B|--15-15-15-14-12-10--14-14-14-12-10-9--12-12-12-10-9-10-|
G|--------------------------------------------------------|
D|--------------------------------------------------------|
A|--------------------------------------------------------|
E|--------------------------------------------------------|

(violão)

E|--------------------------------------------------------|
B|--------------------------------------------------------|
G|--------------------------------------------------------|
D|--------------------------------------------------------|
A|------4--7--5-4-----------------------------------------|
E|--5-5-------------7--5-5-5~-----------------------------|

Meus dias sem ti ver      são difíceis de viver
                                                  D  D4  D
Feito um louco na cidade        com saudades de você
                   D  D4  D                     A A4  A
Durmo em qualquer lugar olhos vermelhos de chorar
                 E7
É uma pena que você     não consegue entender
                          A  D/A  A
meu jeito louco de te amar

          A7     D
E se eu pareço um vagabundo
é que o amor maior do mundo
                    A   A4   A
mora aqui no peito meu
                           E7
E se eu sofro assim por ela

é que aprendi que a vida é ela
                        A  A4  A
e que o amor dela sou eu

(refrão)

(intro)

                   A  A4  A                    A  A4  A
Meus dias sem ti ver         dá vontade de morrer
                                             D  D4  D
Eu estou enlouquecendo  to bebendo pra esquecer
                                           A  A4  A
Não sei nem me cuidar   longe de você não dá
                 E7
É uma pena que você     não consegue entender
                        A  A4  A
meu jeito louco de te amar

(refrão 4x)

(intro)
00:00 / 00:00
Otros videos de esta canción
Repetir
Otros videos de esta canción
Composición de Rick
Colaboración y revisión:
  • Diogo França
8 exhibiciones
    • ½ Tono
    • A
    • Bb
    • B
    • C
    • Db
    • D
    • Eb
    • E
    • F
    • F#
    • G
    • Ab
  • Agregar a la lista
    00:00 / 00:00
    OK