Cifra Club

Inesquecível

Hugo Pena e Gabriel

Cifrado: Principal (guitarra y guitarra eléctrica)
tono: C
Introdução: 
           C 
E|--------------------------------
B|-6/8-8-8-8--6-6-5-5---------5---
G|--------------------7-7-5-7---5-
D|--------------------------------
A|--------------------------------
E|--------------------------------
           Am
E|--------------------------------
B|-6/8-8-8-8--6-6-5-5---------5---
G|--------------------7-7-5-7---5-
D|--------------------------------
A|--------------------------------
E|--------------------------------
           F
E|--------------------------------
B|-6/8-8-8-8-------8/10-8---------
G|------------5-5----------5-5----
D|--------------------------------
A|--------------------------------
E|--------------------------------
         G
E|--------------------------------
B|-----5-6-5-6-5------------------
G|-5-7-----------7-5-5h7----------
D|--------------------------------
A|--------------------------------
E|--------------------------------

   C                                        Am    
Parece que foi sonho que vivi, mas foi realidade.
    F                                         C     F
Às vezes me pergunto qual é motivo de tanta saudade

   C                                        Am 
Você foi prazer foi vendaval foi furacão em mim
   F                                     
Deixou na minha alma uma paixão irresistível
         C
Que não vai ter fim

    Dm
Não sei se fui amante fui amigo fui bandido
   F                                    G
Amor de uma noite foi paixão sem compromisso

        C
Inesquecível
                   
O seu cheiro seu suor em mim
        Am                     
Inesquecível o seu jeito de fazer amor
        F               Dm
Foi loucura demais amor irracional
       G 
Eu não sei se me fez bem ou me fez mal

        C
Inesquecível
                     
Você sussurrando em meu ouvido
       Am 
Inesquecível
                   
É o brilho desse seu olhar
      F               Dm
Foi amor selvagem algo incomum
    G
Só não quero ouvir você dizendo por ai
          C      Am   F   G   
Que fui, mas um.
00:00 / 00:00
Otros videos de esta canción
Repetir
Otros videos de esta canción
Composición de Mauro Sérgio / Sergio Porto
Colaboración y revisión:
90 exhibiciones
    • ½ Tono
    • A
    • Bb
    • B
    • C
    • Db
    • D
    • Eb
    • E
    • F
    • F#
    • G
    • Ab
  • Agregar a la lista
    00:00 / 00:00
    OK