Cifra Club

Parece Castigo

Hugo Pena e Gabriel

Cifrado: Versão 3 (guitarra y guitarra eléctrica)
tono: B
intro:
      B                      A#m G#m                       E                           F#
      |                        | |                         |                           |
e|-9/11-11-11-7-9-11-11-12-12-11-9-7-7-7-7-4-6-7-7-9-9-7-6-4-4-4-4-0-2-4-4-6-6-4-2-4/6-6-6-6-6-| 
B|---------------------------------------------------------------------------------------------| 
G|-9/11-11-11-8-9-11-11-13-13-11-9-8-8-8-8-4-6-8-8-9-9-8-6-4-4-4-4-1-3-4-4-6-6-4-3-4/6-6-6-6-6-| 
D|---------------------------------------------------------------------------------------------|
A|---------------------------------------------------------------------------------------------|
E|---------------------------------------------------------------------------------------------| 

                   B
                   |
e|-2-4-6-6-7-9-7-5-7-|
B|-------------------| obs:as notas acima da tablatura indicam o violão que fará a base.
G|-3-4-6-6-8-9-8-6-8-| 
D|-------------------| repete 2x o solo antes de começar a musica.
A|-------------------|
E|-------------------|

B                   G#m
Eu não consigo te esquecer 
                      E
Meu pensamento só fica em você
            C#m           F#
A cada dia chego a delirar
                          B
Se for um sonho mi deixa acordar
                     G#m
Parece até ser um castigo
                         E
A solidão quer acabar comigo
                        C#m
Não posso mais viver sem essa paixão
 F#
De outra chance pro meu coração

  B                              G#m
Aonde estou que eu não perco a cabeça
                                E
Volta pra mim antes que eu enlouqueça
                                    C#m
Aonde estou que vejo o mundo girar
   F#                        B
Será que um dia isso vai acabar

repete a intro

                    G#m
Parece até ser um castigo
                         E
A solidão quer acabar comigo
                        C#m
Não posso mais viver sem essa paixão
 F#
De outra chance pro meu coração

REPETE REFRÃO 2x

obs: pode-se usar apenas as notas: B A#m G#m E F# }2x se não quizer fazer o solo
00:00 / 00:00
Otros videos de esta canción
Repetir
Otros videos de esta canción
Composición de Leleu
Colaboración y revisión:
52 exhibiciones
    • ½ Tono
    • A
    • Bb
    • B
    • C
    • Db
    • D
    • Eb
    • E
    • F
    • F#
    • G
    • Ab
  • Agregar a la lista
    00:00 / 00:00
    OK