Cifra Club

Pétala

Hugo Pena e Gabriel

Cifrado: Principal (guitarra y guitarra eléctrica)
tono: E
Intro: C#m A9 E B9 (2x)

E|----------------------------------------------------------|
A|----------------------------------------------------------|
D|-------------------------------------------------------4--|
G|--------------------------------------------4--2s4-2-1----| (2x)
B|--2s5-5-5--2-2-0-2---2s5-5-5--2-2-0-2-0h2-2---------------|
E|----------------------------------------------------------|

E
Pétala
           B9
Pétala da flor mais preciosa
           A9
Brilho que invade o céu
             E
Das minhas manhãs

Quem
        B9
Quem poderia ser
        A9
Só poderia ver
       E
Uma pessoa

B9    F#m  A9  B9
Você Você Você

( Refrão )

  C#m
O mais puro coração
A9
Mas perfeita intensão
E              B9
Quero ser merecedor
  C#m
A canção preferida
A9
A mulher da minha vida
E         B9
Vivo por você

Intro: C#m A9 E B9 (2x)

E|----------------------------------------------------------|
A|----------------------------------------------------------|
D|-------------------------------------------------------4--|
G|--------------------------------------------4--2s4-2-1----| (2x)
B|--2s5-5-5--2-2-0-2---2s5-5-5--2-2-0-2-0h2-2---------------|
E|----------------------------------------------------------|

E
Então
             B9
Quiz assim o criador
             A9
Que eu fosse merecedor
              E
Da sua mais perfeita invenção
                              A9
Construída pelas suas próprias mãos

F#m   A9  B9
Você Você

( Refrão )

  C#m
O mais puro coração
A9
Mas perfeita intensão
E              B9
Quero ser merecedor
  C#m
A canção preferida
A9
A mulher da minha vida
E         B9
Vivo por você (2x)

F#m   A9  B9
Você Você
E
Você
00:00 / 00:00
Otros videos de esta canción
Repetir
Otros videos de esta canción
Compositor no encontrado.
Colaboración y revisión:
  • Jeaan
9 exhibiciones
    • ½ Tono
    • A
    • Bb
    • B
    • C
    • Db
    • D
    • Eb
    • E
    • F
    • F#
    • G
    • Ab
  • Agregar a la lista
    00:00 / 00:00
    OK