Cifra Club

Quatro Estações

Hugo Pena e Gabriel

Cifrado: Principal (guitarra y guitarra eléctrica)
tono: D
Intro:  D  Bm  G  Em  A
    D          Bm          G           A
E|----------|-----------|-----------|------------|
B|---3---3--|----3---3--|-----3---3-|----2---2---|
G|-----2----|------4----|-------0---|------2-----|
D|-0--------|-----------|-----------|------------|
A|----------|--2--------|-----------|--0---------|
E|----------|-----------|--3--------|------------|

    D                  Bm
No verão quero ser teu mar
        G              Em          A
Na primavera a mais linda flor eu vou te dar
     D                    Bm
No outono no inverno nas quatro estações
      G           Em          A                     (D)↓
vou viver só pra te dar razões, razões pra me amar.
    D  (2x)    Bm   (2x)    G         Em           A    (2x)
E|----------|-----------|----------------------|------------|
B|---3---3--|----3---3--|-----3---3------0---0-|----2---2---|
G|-----2----|------4----|-------0----------0---|------2-----|
D|-0--------|-----------|----------------------|------------|
A|----------|--2--------|----------------------|--0---------|
E|----------|-----------|--3----------0--------|------------|

( D  Bm  G  Em  A )

Solo sanfona:

E|------------------------------------------------------------------|
B|--------------------------7---------------------------------------|
G|-7-6-7--7-6-7---7-7-7-9-9---7---7-7-7-6-6-------------------7-6-7-|
D|------------------------------------------9-9-7-7-5-7-5-7-7-------|
A|------------------------------------------------------------------|
E|------------------------------------------------------------------|

  D                       Bm
Quero ser o teu melhor sorriso,
  G                        A
Te mimar sempre que possível.
  D                       Bm
Quero ser tua vontade louca
  G                        A   ( G  A )
Me lambuzar no mel da sua boca.
          Bm            A
Ser teu sonho, teu segredo,
   G            A   ( G  A )
Tua raiva, teu medo
     Bm             A
Teu desejo, mais profundo
    G            A
Tua vida, teu mundo.

Refrão:
    D                  Bm
No verão quero ser teu mar
        G              Em           A
Na primavera a mais linda flor eu vou te dar
     D                    Bm
No outono no inverno nas quatro estações
      G            Em       A                      D
vou viver só pra te dar razões, razões pra me amar.

( D  Bm  G  Em  A ) (2x)

( G  A )

          Bm            A
Ser teu sonho, teu segredo,
   G            A   ( G  A )
Tua raiva, teu medo
     Bm             A
Teu desejo, mais profundo
    G            A
Tua vida, teu mundo.

Refrão 3x:
    D                  Bm
No verão quero ser teu mar
        G            Em            A
Na primavera a mais linda flor eu vou te dar
     D                    Bm
No outono no inverno nas quatro estações
      G          Em           A                      D
vou viver só pra te dar razões, razões pra me amar.

( D  Bm  G  Em  A ) (2x)   (D) ↓↑↓
00:00 / 00:00
Otros videos de esta canción
Repetir
Otros videos de esta canción
Composición de Julio Cesar Camargo
126 exhibiciones
    • ½ Tono
    • A
    • Bb
    • B
    • C
    • Db
    • D
    • Eb
    • E
    • F
    • F#
    • G
    • Ab
  • Agregar a la lista
    00:00 / 00:00
    OK