Cifra Club

Quero Falar de Amor

Hugo Pena e Gabriel

Chords: Versão 2 (acoustic and electric guitars)
tone: D
Introdução: D, A9/C#, Bm, G 
Solo: 

e|---------------------------------------------------|
B|---------------------------------------------------|
G|---------------------------------------------------|
D|-----2/4-2-0-0h2---2-0---2-0--------------2/4--4/2-|
A|-0---------------------4-------2-4-5-0-------------|
E|---------------------------------------3-----------|

D                   A                 Bm 
   Quero falar de amor falar de nós dois 
               G   
   O que aconteceu antes e depois 
D              A              Bm  
   O primeio beijo me da sensação  
                G  
   Que marcou o meu coração 
Em             Bm                G 
   Eu não conhecia a força do amor 
                 D                     
   Eu já mais pensei querer alguém assim 
Em              Bm            G                    A    G/B  A9/C# 
   Foi tão envolvente e especial quando eu te conheci... 
 
D                A                  Bm       
   E agora que eu finalmente encontrei 
             G                D 
   A minha metade e a minha razão   
                 A9/C#                    Bm       
   Quero te confessar que não dá pra esconder 
           G           A      D     A9/C#  Bm  G  
   Está na cara que eu amo você 
 
Solo:

e|------------------------------------------------------|
B|------------------------------------------------------|
G|------------------------------------------------------|
D|-/4-4-4h5-4-2-2---2-4-4h5-4-2-0--0-0h2--0-0h2-0-------|
A|------------------------------------------------0h2-0-|
E|------------------------------------------------------|

e|------------------------------------------|
B|------------------------------------------|
G|------------------------------------------|
D|-/4-5-4-2-2---2-4-4h5-4-2-0-0-------------|
A|---------------------------------0h2--0---|
E|----------------------------------------3-|

Em              Bm                G 
   Eu não conhecia a força do amor 
                 D                     
   Eu já mais pensei querer alguem assim 
Em               Bm            G                    A    G/B   A9/C# 
   Foi tão envolvente e especial quando eu te conheci... 
 
D              A                   Bm       
   E agora que eu finalmente encontrei 
             G                D 
   A minha metade e a minha razão 
                 A9/C#                    Bm       
   Quero te confessar que não dá pra esconder 
            G          A      G       
   Está na cara que eu amo você 
 
                     Bm                     G 
   Quando fecho meus olhos eu só vejo nós dois 
                    D                     A             G# A# 
   Ter vocë ao meu lado é o sonho que eu sempre imaginei 
  
D#              A#                  Cm   
   E agora que eu finalmente encontrei 
             G#               D# 
   A minha metade e a minha razão 
                 A#                       Cm  
   Quero te confessar que não dá pra esconder 
           G#                 D#  A#  Cm  G#    D# 
   Está na cara que eu amo você

Solo:

e|------------------------------------------------------|
B|------------------------------------------------------|
G|------------------------------------------------------|
D|-3/5-3-1-1h3---3-1-0-1/3-1~----0-1--------3/5-5/3---1-|
A|-----------------------------3-----1------------------|
E|-------------------------------------/4~--------------|
00:00 / 00:00
Other videos of this song
Repeat
Other videos of this song
7 views
    • ½ Tone
    • A
    • Bb
    • B
    • C
    • Db
    • D
    • Eb
    • E
    • F
    • F#
    • G
    • Ab
  • Add to list

Afinação da cifra

Afinador online

    00:00 / 00:00
    OK