Cifra Club

If You Are To Bloom

Hum

Cifrado: Principal (guitarra y guitarra eléctrica)
Selo Cifra Club: esta cifra foi revisada para atender aos critérios oficiais da nossa Equipe de Qualidade.
tono: Ebm
Matt
E|-2--2--2-2-X-X-X-X-X--2--2--2-2-2-2--2-2-2-2/7--7--7--7--7--7--7--7--------|
B|-4--4--4-4-X-X-X-X-X--4--4--4-4-4-4--4-4-4-4/9--9--9--9--9--9--9--9--------|
G|-3--3--3-3-X-X-X-X-X--3--3--3-3-3-3--3-3-3-3/8--8--8--8--8--8--8--8--------|
D|-4--4--4-4-X-X-X-X-X--4--4--4-4-4-4--4-4-4-4/9--9--9--9--9--9--9--9--------|
A|-2--2--2-2-X-X-X-X-X--2--2--2-2-2-2--2-2-2-2/7--7--7--7--7--7--7--7--------|
E|-2--2--2-2-X-X-X-X-X--2--2--2-2-2-2--2-2-2-2/7--7--7--7--7--7--7--7--------|

Distorted part

Matt Talbot
E|-5--5--5-5-5-5-2--2--2-2--9--9--9--9---------------------------------------|
B|-7--7--7-7-7-7-4--4--4-4-11-11-11-11---------------------------------------|
G|-6--6--6-6-6-6-3--3--3-3-10-10-10-10---------------------------------------|
D|-7--7--7-7-7-7-4--4--4-4-11-11-11-11---------------------------------------|
A|-5--5--5-5-5-5-2--2--2-2--9--9--9--9---------------------------------------|
E|-5--5--5-5-5-5-2--2--2-2--9--9--9--9---------------------------------------|

Tim Lash
E|-5--5--5-5-5-5-2--2--2-2--9--9--9--9---------------------------------------|
B|-7--7--7-7-7-7-4--4--4-4-11-11-11-11---------------------------------------|
G|-6--6--6-6-6-6-3--3--3-3-10-10-10-10---------------------------------------|
D|-7--7--7-7-7-7-4--4--4-4-11-11-11-11---------------------------------------|
A|-5--5--5-5-5-5-2--2--2-2--9--9--9--9---------------------------------------|
E|-5--5--5-5-5-5-2--2--2-2--9--9--9--9---------------------------------------|

[Verse 1-a]

Matt
E|-----------------------------------------------------------------------------------------------------------|
B|-9--9--9-9-9-9--9-9--9-9-9-9-9--9--9-9-9-9--9-9--9-9-9-9--------------------------------------9------------|
G|-8--8--8-8-8-8--8-8--8-8-8-8-8--8--8-8-8-8--8-8--8-8-8-8------------------------------------------8--------|
D|-9--9--9-9-9-9--9-9--9-9-9-9-9--9--9-9-9-9--9-9--9-9-9-9--2-------------------------------------------9----|
A|-7--7--7-7-7-7--7-7--7-7-7-7-7--7--7-7-7-7--7-7--7-7-7-7--2-----------------------------------------------7|
E|-7--7--7-7-7-7--7-7--7-7-7-7-7--7--7-7-7-7--7-7--7-7-7-7--0------------------------------------------------|

Tim
E|----------------------------------------------------------------------------------------------------------|
B|--------------------------------------------------------------------------------14----14-----14----14-----|
G|-8--6--6-6-6-6----4--4-4-4-4-------------------------------------11----11---------11----11-----11----11---|
D|--------------------------------6------6-6----4---4-----6/14-13~----13----13-13-----13----13-----13----13-|
A|-------6-6-6-6--4-4--4-4-4-4------------------------------------------------------------------------------|
E|-----------------------------4-----4-4------2---2---2/4-4-------------------------------------------------|

[Verse 1-b]

Matt
E|---------------------------------------------------------------------------------------------------------|
B|-9--9--9-9-9-9--9-9--9-9-9-9-9--9--9-9-9-9--9-9--9-9-9-9-------------------------------------------------|
G|-8--8--8-8-8-8--8-8--8-8-8-8-8--8--8-8-8-8--8-8--8-8-8-8-------------------------------------------------|
D|-9--9--9-9-9-9--9-9--9-9-9-9-9--9--9-9-9-9--9-9--9-9-9-9--2----------------------------------------------|
A|-7--7--7-7-7-7--7-7--7-7-7-7-7--7--7-7-7-7--7-7--7-7-7-7--2-----------------11-12-11---------------------|
E|-7--7--7-7-7-7--7-7--7-7-7-7-7--7--7-7-7-7--7-7--7-7-7-7--0--------------------------14--12-12-11-12-11--|

Tim
E|---------------------------------------------------------------------------------------------------------|
B|---------------------------------------------------------------------------------------------------------|
G|-8--6--6-6-6-6----4--4-4-4-4-----------------------------------------------------------------------------|
D|--------------------------------6------6-6----4---4-----6/14-13-------13-13------------------------------|
A|-------6-6-6-6--4-4--4-4-4-4------------------------------------------------11-12-11---------------------|
E|-----------------------------4-----4-4------2---2---2/4-4-------12-12----------------14--12-12-11-12-11--|

Matt
E|---------------------------------------------------------------------------|
B|---------------------------------------------------------------------------|
G|---------------------------------------------------------------------------|
D|---------------------------------------------------------------------------|
A|---------------------------------------------------------------------------|
E|-9--9--7--7-9-9-7h9-9-7-7-9-9/11-9-7---------------------------------------|

Tim
E|---------------------------------------------------------------------------|
B|---------------------------------------------------------------------------|
G|---------------------------------------------------------------------------|
D|---------------------------------------------------------------------------|
A|--------------------------2-4-4-2------------------------------------------|
E|-9--9--7--7-9-9-7-2-4-4-2--------------------------------------------------|

[Verse 1-c]

Matt
E|---------------------------------------------------------------------------------------------------------|
B|-9--9--9-9-9-9--9-9--9-9-9-9-9--9--9-9-9-9--9-9--9-9-9-9-------------------------------------------------|
G|-8--8--8-8-8-8--8-8--8-8-8-8-8--8--8-8-8-8--8-8--8-8-8-8-------------------------------------------------|
D|-9--9--9-9-9-9--9-9--9-9-9-9-9--9--9-9-9-9--9-9--9-9-9-9--2----------------------------------------------|
A|-7--7--7-7-7-7--7-7--7-7-7-7-7--7--7-7-7-7--7-7--7-7-7-7--2-----------------11-12-11---------------------|
E|-7--7--7-7-7-7--7-7--7-7-7-7-7--7--7-7-7-7--7-7--7-7-7-7--0--------------------------14--12-12-11-12-11--|

Tim
E|---------------------------------------------------------------------------------------------------------|
B|---------------------------------------------------------------------------------------------------------|
G|----6--6-6-6-6----4--4-4-4-4-----------------------------------------------------------------------------|
D|--------------------------------6------6-6----4---4-----6/14-13-------13-13------------------------------|
A|-6--6--6-6-6-6--4-4--4-4-4-4------------------------------------------------11-12-11---------------------|
E|-----------------------------4-----4-4------2---2---2/4-4-------12-12----------------14--12-12-11-12-11--|

Matt
E|-------------------------------------7--7--7-7-7-7--7-7--7-7-7-7--7--7--7-7-7-7--7-7--7-7-7-7-------------|
B|-------------------------------------9--9--9-9-9-9--9-9--9-9-9-9--9--9--9-9-9-9--9-9--9-9-9-9-------------|
G|-------------------------------------8--8--8-8-8-8--8-8--8-8-8-8--8--8--8-8-8-8--8-8--8-8-8-8-------------|
D|-------------------------------------9--9--9-9-9-9--9-9--9-9-9-9--9--9--9-9-9-9--9-9--9-9-9-9-------------|
A|-------------------------------------7--7--7-7-7-7--7-7--7-7-7-7--7--7--7-7-7-7--7-7--7-7-7-7-------------|
E|-9--9--7--7-9-9-7h9-9-7-7-9-9/11-9-7-7--7--7-7-7-7--7-7--7-7-7-7--7--7--7-7-7-7--7-7--7-7-7-7-------------|

E|-----------th| is part is played three times--------------|

Tim
E|----------------------------------------------------------------------------------------------------------|
B|--------------------------------------19----------19----------19----------19--17--15--19--------19b20-----|
G|-----------------------------11-----------18--16------18--16------18--16-----------------18--16-----------|
D|-------------------------/13----13----16----------16----------16----------16--14--13--16--------16b17-----|
A|------------------------------------------16--14------16--14------16--14-----------------16--14-----------|
E|-9--9--7--7-9-9-7-2-4-4-2----------0----------------------------------------------------------------------|

E|-------th| is notes are played very fast in that order-----------|

Clean Arrangement
This part goes behind Matt's guitar right before the chorus
E|-------0----------------0--------------------------------------------------|
B|----------9----------------9-----------------------------------------------|
G|----8--------8-------8--------8--------------------------------------------|
D|-9----------------9--------------------------------------------------------|
A|---------------------------------------------------------------------------|
E|---------------------------------------------------------------------------|

[Verse 1-d]
Matt
E|-5--5--5-5-5-5-2--2--2-2--9--9--9--7--7--7--7------------------------------|
B|-7--7--7-7-7-7-4--4--4-4-11-11-11--9--9--9--9------------------------------|
G|-6--6--6-6-6-6-3--3--3-3-10-10-10--8--8--8--8------------------------------|
D|-7--7--7-7-7-7-4--4--4-4-11-11-11--9--9--9--9------------------------------|
A|-5--5--5-5-5-5-2--2--2-2--9--9--9--7--7--7--7------------------------------|
E|-5--5--5-5-5-5-2--2--2-2--9--9--9--7--7--7--7------------------------------|

Tim
E|-5--5--5-5-5-5-2--2--2-2--9--9--9--7--7--7--7------------------------------|
B|-7--7--7-7-7-7-4--4--4-4-11-11-11--9--9--9--9------------------------------|
G|-6--6--6-6-6-6-3--3--3-3-10-10-10--8--8--8--8------------------------------|
D|-7--7--7-7-7-7-4--4--4-4-11-11-11--9--9--9--9------------------------------|
A|-5--5--5-5-5-5-2--2--2-2--9--9--9--7--7--7--7------------------------------|
E|-5--5--5-5-5-5-2--2--2-2--9--9--9--7--7--7--7------------------------------|

[Chorus]

Matt
E|-2--2--2-2-X-X-X-X-X--2--2--2-2-X-X-X-X-X-X-7-7-7-7-7-7-7-7-7-7-7-7-7-7-7-7-|
B|-4--4--4-4-X-X-X-X-X--4--4--4-4-X-X-X-X-X-X-9-9-9-9-9-9-9-9-9-9-9-9-9-9-9-9-|
G|-3--3--3-3-X-X-X-X-X--3--3--3-3-X-X-X-X-X-X-8-8-8-8-8-8-8-8-8-8-8-8-8-8-8-8-|
D|-4--4--4-4-X-X-X-X-X--4--4--4-4-X-X-X-X-X-X-9-9-9-9-9-9-9-9-9-9-9-9-9-9-9-9-|
A|-2--2--2-2-X-X-X-X-X--2--2--2-2-X-X-X-X-X-X-7-7-7-7-7-7-7-7-7-7-7-7-7-7-7-7-|
E|-2--2--2-2-X-X-X-X-X--2--2--2-2-X-X-X-X-X-X-7-7-7-7-7-7-7-7-7-7-7-7-7-7-7-7-|

Tim
E|-2--2--2-2------------2--2--2-2-----------------------------------------------------------------------|
B|-4--4--4-4------------4--4--4-4--*4--*4---------------------------------------------------------------|
G|-3--3--3-3--*4--*4----3--3--3-3----*4--*4--11-15-16-15-11-15-16-15-------9-9-11-11-13-13--16--16-18---|
D|-4--4--4-4----*4--*4--4--4--4-4------------------------------------11-11------------------------------|
A|-2--2--2-2------------2--2--2-2-------------9-13-14-13--9-13-14-13-------7-7--9--9-11-11--14--14-16---|
E|-2--2--2-2------------2--2--2-2-------------------------------------9--9------------------------------|

Matt
E|-2--2--2-2-X-X-X-X-X--2--2--2-2-X-X-X-X-X-X-7-7-7-7-7-7-7-7-7-7-7-7-7-7-7-7-|
B|-4--4--4-4-X-X-X-X-X--4--4--4-4-X-X-X-X-X-X-9-9-9-9-9-9-9-9-9-9-9-9-9-9-9-9-|
G|-3--3--3-3-X-X-X-X-X--3--3--3-3-X-X-X-X-X-X-8-8-8-8-8-8-8-8-8-8-8-8-8-8-8-8-|
D|-4--4--4-4-X-X-X-X-X--4--4--4-4-X-X-X-X-X-X-9-9-9-9-9-9-9-9-9-9-9-9-9-9-9-9-|
A|-2--2--2-2-X-X-X-X-X--2--2--2-2-X-X-X-X-X-X-7-7-7-7-7-7-7-7-7-7-7-7-7-7-7-7-|
E|-2--2--2-2-X-X-X-X-X--2--2--2-2-X-X-X-X-X-X-7-7-7-7-7-7-7-7-7-7-7-7-7-7-7-7-|

Tim
E|-------------------------------------------------------------------------------------------------|
B|--------------------------------------------------------------------------------------14---------|
G|-18b20r18-13-13-16-13-16-13-15-13-15-13-15~-13-13-16-13-16-13-15-13-15~------------11----11------|
D|------------------------------------------------------------------------9-11-12-13----------13---|
A|-16b18r16----------------------------------------------------------------------------------------|
E|-------------------------------------------------------------------------------------------------|

Matt
E|-2--2--2-2-X-X-X-X-X--2--2--2-2-X-X-X-X-X-X-7-7-7-7-7-7-7-7-7-7-7-7-7-7-7-7-|
B|-4--4--4-4-X-X-X-X-X--4--4--4-4-X-X-X-X-X-X-9-9-9-9-9-9-9-9-9-9-9-9-9-9-9-9-|
G|-3--3--3-3-X-X-X-X-X--3--3--3-3-X-X-X-X-X-X-8-8-8-8-8-8-8-8-8-8-8-8-8-8-8-8-|
D|-4--4--4-4-X-X-X-X-X--4--4--4-4-X-X-X-X-X-X-9-9-9-9-9-9-9-9-9-9-9-9-9-9-9-9-|
A|-2--2--2-2-X-X-X-X-X--2--2--2-2-X-X-X-X-X-X-7-7-7-7-7-7-7-7-7-7-7-7-7-7-7-7-|
E|-2--2--2-2-X-X-X-X-X--2--2--2-2-X-X-X-X-X-X-7-7-7-7-7-7-7-7-7-7-7-7-7-7-7-7-|

Tim
E|-------------------------------------------------------------------------------------------------|
B|-----------------------------------------------------------------------------------14------------|
G|-3--3--13-13-16-13-16-13-15-13-15-13-15~-13-13-16-13-16-13-15-13-15~------------11----11---------|
D|-4--4----------------------------------------------------------------9-11-12-13----------13------|
A|-2--2--------------------------------------------------------------------------------------------|
E|-2--2--------------------------------------------------------------------------------------------|

Matt
E|-2--2--2-2-X-X-X-X-X--2--2--2-2-2-2--2-2-2-2/7--7--7--7--7--7--7--7--------|
B|-4--4--4-4-X-X-X-X-X--4--4--4-4-4-4--4-4-4-4/9--9--9--9--9--9--9--9--------|
G|-3--3--3-3-X-X-X-X-X--3--3--3-3-3-3--3-3-3-3/8--8--8--8--8--8--8--8--------|
D|-4--4--4-4-X-X-X-X-X--4--4--4-4-4-4--4-4-4-4/9--9--9--9--9--9--9--9--------|
A|-2--2--2-2-X-X-X-X-X--2--2--2-2-2-2--2-2-2-2/7--7--7--7--7--7--7--7--------|
E|-2--2--2-2-X-X-X-X-X--2--2--2-2-2-2--2-2-2-2/7--7--7--7--7--7--7--7--------|

Tim
E|---------------------------------------------------------------------------|
B|-------14------------------14----------------------16----------------------|
G|----11----11------------11----11----------------13----13-------------------|
D|-13------------------13----------------------14----------------------------|
A|---------------------------------------------------------------------------|
E|---------------------------------------------------------------------------|

Matt
E|-5--5--5-5-5-5-2--2--2-2--9--9--9--9---------------------------------------|
B|-7--7--7-7-7-7-4--4--4-4-11-11-11-11---------------------------------------|
G|-6--6--6-6-6-6-3--3--3-3-10-10-10-10---------------------------------------|
D|-7--7--7-7-7-7-4--4--4-4-11-11-11-11---------------------------------------|
A|-5--5--5-5-5-5-2--2--2-2--9--9--9--9---------------------------------------|
E|-5--5--5-5-5-5-2--2--2-2--9--9--9--9---------------------------------------|

Tim
E|-5--5--5-5-5-5-2--2--2-2--9--9--9--9---------------------------------------|
B|-7--7--7-7-7-7-4--4--4-4-11-11-11-11---------------------------------------|
G|-6--6--6-6-6-6-3--3--3-3-10-10-10-10---------------------------------------|
D|-7--7--7-7-7-7-4--4--4-4-11-11-11-11---------------------------------------|
A|-5--5--5-5-5-5-2--2--2-2--9--9--9--9---------------------------------------|
E|-5--5--5-5-5-5-2--2--2-2--9--9--9--9---------------------------------------|

[Verse 2-a]

Matt
E|---------------------------------------------------------------------------------------------------------|
B|-9--9--9-9-9-9--9-9--9-9-9-9-9--9--9-9-9-9--9-9--9-9-9-9-------------------------------------------------|
G|-8--8--8-8-8-8--8-8--8-8-8-8-8--8--8-8-8-8--8-8--8-8-8-8-------------------------------------------------|
D|-9--9--9-9-9-9--9-9--9-9-9-9-9--9--9-9-9-9--9-9--9-9-9-9--2----------------------------------------------|
A|-7--7--7-7-7-7--7-7--7-7-7-7-7--7--7-7-7-7--7-7--7-7-7-7--2-----------------11-12-11---------------------|
E|-7--7--7-7-7-7--7-7--7-7-7-7-7--7--7-7-7-7--7-7--7-7-7-7--0--------------------------14--12-12-11-12-11--|

Tim
E|---------------------------------------------------------------------------------------------------------|
B|---------------------------------------------------------------------------------------------------------|
G|-8--6--6-6-6-6----4--4-4-4-4-----------------------------------------------------------------------------|
D|--------------------------------6------6-6----4---4-----6/14-13-------13-13------------------------------|
A|-------6-6-6-6--4-4--4-4-4-4------------------------------------------------11-12-11---------------------|
E|-----------------------------4-----4-4------2---2---2/4-4-------12-12----------------14--12-12-11-12-11--|

Matt
E|---------------------------------------------------------------------------|
B|---------------------------------------------------------------------------|
G|---------------------------------------------------------------------------|
D|---------------------------------------------------------------------------|
A|---------------------------------------------------------------------------|
E|-9--9--7--7-9-9-7h9-9-7-7-9-9/11-9-7---------------------------------------|

Tim
E|---------------------------------------------------------------------------|
B|---------------------------------------------------------------------------|
G|---------------------------------------------------------------------------|
D|---------------------------------------------------------------------------|
A|--------------------------2-4-4-2------------------------------------------|
E|-9--9--7--7-9-9-7-2-4-4-2--------------------------------------------------|

[Verse 2-b]

Matt
E|---------------------------------------------------------------------------------------------------------|
B|-9--9--9-9-9-9--9-9--9-9-9-9-9--9--9-9-9-9--9-9--9-9-9-9-------------------------------------------------|
G|-8--8--8-8-8-8--8-8--8-8-8-8-8--8--8-8-8-8--8-8--8-8-8-8-------------------------------------------------|
D|-9--9--9-9-9-9--9-9--9-9-9-9-9--9--9-9-9-9--9-9--9-9-9-9--2----------------------------------------------|
A|-7--7--7-7-7-7--7-7--7-7-7-7-7--7--7-7-7-7--7-7--7-7-7-7--2-----------------11-12-11---------------------|
E|-7--7--7-7-7-7--7-7--7-7-7-7-7--7--7-7-7-7--7-7--7-7-7-7--0--------------------------14--12-12-11-12-11--|

Tim
E|---------------------------------------------------------------------------------------------------------|
B|---------------------------------------------------------------------------------------------------------|
G|-8--6--6-6-6-6----4--4-4-4-4-----------------------------------------------------------------------------|
D|--------------------------------6------6-6----4---4-----6/14-13-------13-13------------------------------|
A|-------6-6-6-6--4-4--4-4-4-4------------------------------------------------11-12-11---------------------|
E|-----------------------------4-----4-4------2---2---2/4-4-------12-12----------------14--12-12-11-12-11--|

Matt
E|-------------------------------------7--7--7-7-7-7--7-7--7-7-7-7--7--7--7-7-7-7--7-7--7-7-7-7-------------|
B|-------------------------------------9--9--9-9-9-9--9-9--9-9-9-9--9--9--9-9-9-9--9-9--9-9-9-9-------------|
G|-------------------------------------8--8--8-8-8-8--8-8--8-8-8-8--8--8--8-8-8-8--8-8--8-8-8-8-------------|
D|-------------------------------------9--9--9-9-9-9--9-9--9-9-9-9--9--9--9-9-9-9--9-9--9-9-9-9-------------|
A|-------------------------------------7--7--7-7-7-7--7-7--7-7-7-7--7--7--7-7-7-7--7-7--7-7-7-7-------------|
E|-9--9--7--7-9-9-7h9-9-7-7-9-9/11-9-7-7--7--7-7-7-7--7-7--7-7-7-7--7--7--7-7-7-7--7-7--7-7-7-7-------------|

E|-----------th| is part is played three times--------------|

Tim
E|----------------------------------------------------------------------------------------------------------|
B|--------------------------------------19----------19----------19----------19--17--15--19--------19b20-----|
G|-----------------------------11-----------18--16------18--16------18--16-----------------18--16-----------|
D|-------------------------/13----13----16----------16----------16----------16--14--13--16--------16b17-----|
A|------------------------------------------16--14------16--14------16--14-----------------16--14-----------|
E|-9--9--7--7-9-9-7-2-4-4-2----------0----------------------------------------------------------------------|

E|-------th| is notes are played very fast in that order-----------|

Clean Arrangement
E|-------0----------------0--------------------------------------------------|
B|----------9----------------9-----------------------------------------------|
G|----8--------8-------8--------8--------------------------------------------|
D|-9----------------9--------------------------------------------------------|
A|---------------------------------------------------------------------------|
E|---------------------------------------------------------------------------|

[Verse 2-c]

Matt
E|-5--5--5-5-5-5-2--2--2-2--9--9--9--------------------------------|
B|-7--7--7-7-7-7-4--4--4-4-11-11-11--------------------------------|
G|-6--6--6-6-6-6-3--3--3-3-10-10-10--------------------------------|
D|-7--7--7-7-7-7-4--4--4-4-11-11-11--------------------------------|
A|-5--5--5-5-5-5-2--2--2-2--9--9--9--------------------------------|
E|-5--5--5-5-5-5-2--2--2-2--9--9--9--------------------------------|

Tim
E|-5--5--5-5-5-5-2--2--2-2--9--9--9--------------------------------|
B|-7--7--7-7-7-7-4--4--4-4-11-11-11--------------------------------|
G|-6--6--6-6-6-6-3--3--3-3-10-10-10--------------------------------|
D|-7--7--7-7-7-7-4--4--4-4-11-11-11--------------------------------|
A|-5--5--5-5-5-5-2--2--2-2--9--9--9--------------------------------|
E|-5--5--5-5-5-5-2--2--2-2--9--9--9--------------------------------|



[Bridge]

Matt
E|---------------------------------------------------------------------------|
B|---------------------------------------------------------------------------|
G|-10----10--10-10-10---10----10--10-10--10-10-------------------------------|
D|-11----11--11-11-11---11----11--11-11--11-11-11-13-13--11-13-13------------|
A|--9-----9---9--9--9----9-----9---9--9---9--9--9-11-11---9-11-11------------|
E|--9-----9---9--9--9----9-----9---9--9---9--9--9-11-11---9-11-11------------|

Tim
E|---------------------------------------------------------------------------|
B|---------------------------------------------------------------------------|
G|-11----11--11-11-11---11----11--11-11--11-11-11-13-13--11-13-13------------|
D|-11----11--11-11-11---11----11--11-11--11-11-11-13-13--11-13-13------------|
A|--9-----9---9--9--9----9-----9---9--9---9--9--9-11-11---9-11-11------------|
E|--9-----9---9--9--9----9-----9---9--9---9--9--9-11-11---9-11-11------------|

Clean Arrangement
E|---------------------------------------------------------------------------|
B|----7---7-----6---6--------------------------------------------------------|
G|--8---8-----8---8----6--6-----6-----6--8-8---------------------------------|
D|---------------------------6-----6-----------------------------------------|
A|---------------------------------------------------------------------------|
E|---------------------------------------------------------------------------|

[Last Chorus]

Matt
E|-2--2--2-2-X-X-X-X-X--2--2--2-2-X-X-X-X-X-X-7-7-7-7-7-7-7-7-7-7-7-7-7-7-7-7-|
B|-4--4--4-4-X-X-X-X-X--4--4--4-4-X-X-X-X-X-X-9-9-9-9-9-9-9-9-9-9-9-9-9-9-9-9-|
G|-3--3--3-3-X-X-X-X-X--3--3--3-3-X-X-X-X-X-X-8-8-8-8-8-8-8-8-8-8-8-8-8-8-8-8-|
D|-4--4--4-4-X-X-X-X-X--4--4--4-4-X-X-X-X-X-X-9-9-9-9-9-9-9-9-9-9-9-9-9-9-9-9-|
A|-2--2--2-2-X-X-X-X-X--2--2--2-2-X-X-X-X-X-X-7-7-7-7-7-7-7-7-7-7-7-7-7-7-7-7-|
E|-2--2--2-2-X-X-X-X-X--2--2--2-2-X-X-X-X-X-X-7-7-7-7-7-7-7-7-7-7-7-7-7-7-7-7-|

Tim
E|-------------------------------------------------------------------------------------------------|
B|-----------------------------------------------------------------------------------14------------|
G|-3--3--13-13-16-13-16-13-15-13-15-13-15~-13-13-16-13-16-13-15-13-15~------------11----11---------|
D|-4--4----------------------------------------------------------------9-11-12-13----------13------|
A|-2--2--------------------------------------------------------------------------------------------|
E|-2--2--------------------------------------------------------------------------------------------|

Matt
E|-2--2--2-2-X-X-X-X-X--2--2--2-2-X-X-X-X-X-X-7-7-7-7-7-7-7-7-7-7-7-7-7-7-7-7-|
B|-4--4--4-4-X-X-X-X-X--4--4--4-4-X-X-X-X-X-X-9-9-9-9-9-9-9-9-9-9-9-9-9-9-9-9-|
G|-3--3--3-3-X-X-X-X-X--3--3--3-3-X-X-X-X-X-X-8-8-8-8-8-8-8-8-8-8-8-8-8-8-8-8-|
D|-4--4--4-4-X-X-X-X-X--4--4--4-4-X-X-X-X-X-X-9-9-9-9-9-9-9-9-9-9-9-9-9-9-9-9-|
A|-2--2--2-2-X-X-X-X-X--2--2--2-2-X-X-X-X-X-X-7-7-7-7-7-7-7-7-7-7-7-7-7-7-7-7-|
E|-2--2--2-2-X-X-X-X-X--2--2--2-2-X-X-X-X-X-X-7-7-7-7-7-7-7-7-7-7-7-7-7-7-7-7-|

Tim
E|-2--2--2-2------------2--2--2-2-----------------------------------------------------------------------|
B|-4--4--4-4------------4--4--4-4--*4--*4---------------------------------------------------------------|
G|-3--3--3-3--*4--*4----3--3--3-3----*4--*4--11-15-16-15-11-15-16-15-------9-9-11-11-13-13--16--16-18---|
D|-4--4--4-4----*4--*4--4--4--4-4------------------------------------11-11------------------------------|
A|-2--2--2-2------------2--2--2-2-------------9-13-14-13--9-13-14-13-------7-7--9--9-11-11--14--14-16---|
E|-2--2--2-2------------2--2--2-2-------------------------------------9--9------------------------------|

Matt
E|-2--2--2-2-X-X-X-X-X--2--2--2-2-X-X-X-X-X-X-7-7-7-7-7-7-7-7-7-7-7-7-7-7-7-7-|
B|-4--4--4-4-X-X-X-X-X--4--4--4-4-X-X-X-X-X-X-9-9-9-9-9-9-9-9-9-9-9-9-9-9-9-9-|
G|-3--3--3-3-X-X-X-X-X--3--3--3-3-X-X-X-X-X-X-8-8-8-8-8-8-8-8-8-8-8-8-8-8-8-8-|
D|-4--4--4-4-X-X-X-X-X--4--4--4-4-X-X-X-X-X-X-9-9-9-9-9-9-9-9-9-9-9-9-9-9-9-9-|
A|-2--2--2-2-X-X-X-X-X--2--2--2-2-X-X-X-X-X-X-7-7-7-7-7-7-7-7-7-7-7-7-7-7-7-7-|
E|-2--2--2-2-X-X-X-X-X--2--2--2-2-X-X-X-X-X-X-7-7-7-7-7-7-7-7-7-7-7-7-7-7-7-7-|

Tim
E|-------------------------------------------------------------------------------------------------|
B|--------------------------------------------------------------------------------------14---------|
G|-18b20r18-13-13-16-13-16-13-15-13-15-13-15~-13-13-16-13-16-13-15-13-15~------------11----11------|
D|------------------------------------------------------------------------9-11-12-13----------13---|
A|-16b18r16----------------------------------------------------------------------------------------|
E|-------------------------------------------------------------------------------------------------|

Matt
E|-2--2--2-2-X-X-X-X-X--2--2--2-2-2-2--2-2-2-2/7--7--7--7--7--7--7--7--------|
B|-4--4--4-4-X-X-X-X-X--4--4--4-4-4-4--4-4-4-4/9--9--9--9--9--9--9--9--------|
G|-3--3--3-3-X-X-X-X-X--3--3--3-3-3-3--3-3-3-3/8--8--8--8--8--8--8--8--------|
D|-4--4--4-4-X-X-X-X-X--4--4--4-4-4-4--4-4-4-4/9--9--9--9--9--9--9--9--------|
A|-2--2--2-2-X-X-X-X-X--2--2--2-2-2-2--2-2-2-2/7--7--7--7--7--7--7--7--------|
E|-2--2--2-2-X-X-X-X-X--2--2--2-2-2-2--2-2-2-2/7--7--7--7--7--7--7--7--------|

Tim
E|---------------------------------------------------------------------------|
B|-------14------------------14----------------------16----------------------|
G|----11----11------------11----11----------------13----13-------------------|
D|-13------------------13----------------------14----------------------------|
A|---------------------------------------------------------------------------|
E|---------------------------------------------------------------------------|

Matt
E|-5--5--5-5-5-5-2--2--2-2--9--9--9--9-7--------------------------------------|
B|-7--7--7-7-7-7-4--4--4-4-11-11-11-11-9--------------------------------------|
G|-6--6--6-6-6-6-3--3--3-3-10-10-10-10-8--------------------------------------|
D|-7--7--7-7-7-7-4--4--4-4-11-11-11-11-9--------------------------------------|
A|-5--5--5-5-5-5-2--2--2-2--9--9--9--9-7--------------------------------------|
E|-5--5--5-5-5-5-2--2--2-2--9--9--9--9-7--------------------------------------|

Tim
E|-5--5--5-5-5-5-2--2--2-2--9--9--9--9-7--------------------------------------|
B|-7--7--7-7-7-7-4--4--4-4-11-11-11-11-9--------------------------------------|
G|-6--6--6-6-6-6-3--3--3-3-10-10-10-10-8--------------------------------------|
D|-7--7--7-7-7-7-4--4--4-4-11-11-11-11-7--------------------------------------|
A|-5--5--5-5-5-5-2--2--2-2--9--9--9--9-7--------------------------------------|
E|-5--5--5-5-5-5-2--2--2-2--9--9--9--9-7--------------------------------------|


************************************

| X   Dead note
| h   Hammer-on
| r   Release
| b   Bend
| /   Slide up
| ~   Vibrato
Otros videos de esta canción
    2 exhibiciones
      • ½ Tono
      • Am
      • Bbm
      • Bm
      • Cm
      • C#m
      • Dm
      • Ebm
      • Em
      • Fm
      • F#m
      • Gm
      • G#m
    • Agregar a la lista

    Afinación de cifrado

    Afinador online

      OK