Cifra Club

Vida Torta

Icaro e Gilmar

Cifrado: Principal (guitarra y guitarra eléctrica)
tono: C
[Intro] C9  G

                    C9                  G
E|--------------3--3--2--2--0--0------------|
B|--------3--3-------------------3--3--1-0--|
G|-1/3-3------------------------------------|
D|------------------------------------------|
A|------------------------------------------|
E|------------------------------------------|

   C9     G
E|--3-----3---------------------------------|
B|--3-----3---------------------------------|
G|--0-----0---------------------------------|
D|--1-----0---------------------------------|
A|--2-----2---------------------------------|
E|--------3---------------------------------|


G                      C9                           G
Sabe quantas bocas eu beijei pra sentir gosto de saudade
                            C9                      D
Quantas vezes me entreguei inteiro pra achar minha metade
              C9                   G
Até você chegar balada, farra e bar
          Em7                     D     
Ocupava o lugar vazio do meu coração
                 C9                  G
Cê me fez sossegar, me fez cego pra outras
                Em                                 D
Por causa de um ciuminho quer me devolver pra vida louca
                C9                              G
Quem me conhece sabe que eu não corro atrás de amor
                C9                     G
Quem me conhece sabe não sou de pedir favor
                 Em7       D
Mas pelo amor de Deus volta
                C9         D                   G
Você é a pessoa certa pra arrumar minha vida torta
     C9                              G
Quem me conhece sabe que eu não corro atrás de amor
                C9                     G
Quem me conhece sabe não sou de pedir favor
                 Em7       D
Mas pelo amor de Deus volta
                C9         D                   G
Você é a pessoa certa pra arrumar minha vida torta

[Solo] C9 G 
       C9 G 

                    C9                  G
E|--------------3--3--2--2--0--0------------|
B|--------3--3-------------------3--3--1-0--|
G|-1/3-3------------------------------------|
D|------------------------------------------|
A|------------------------------------------|
E|------------------------------------------|

   C9     G
E|--3-----3---------------------------------|
B|--3-----3---------------------------------|
G|--0-----0---------------------------------|
D|--1-----0---------------------------------|
A|--2-----2---------------------------------|
E|--------3---------------------------------|


          C9                   G
Até você chegar balada, farra e bar
          Em7                     D     
Ocupava o lugar vazio do meu coração
                 C9                  G
Cê me fez sossegar, me fez cego pra outras
                Em                                 D
Por causa de um ciuminho quer me devolver pra vida louca
                C9                              G
Quem me conhece sabe que eu não corro atrás de amor
                C9                     G
Quem me conhece sabe não sou de pedir favor
                 Em7       D
Mas pelo amor de Deus volta
                C9         D                   G
Você é a pessoa certa pra arrumar minha vida torta
     C9                              G
Quem me conhece sabe que eu não corro atrás de amor
                C9                     G
Quem me conhece sabe não sou de pedir favor
                 Em7       D
Mas pelo amor de Deus volta
                C9         D                   G
Você é a pessoa certa pra arrumar minha vida torta
                 Em7       D
Mas pelo amor de Deus volta
                C9         D                   G
Você é a pessoa certa pra arrumar minha vida torta


[Solo] C9 G

                    C9                  G
E|--------------3--3--2--2--0--0------------|
B|--------3--3-------------------3--3--1-0--|
G|-1/3-3------------------------------------|
D|------------------------------------------|
A|------------------------------------------|
E|------------------------------------------|

   C9     G
E|--3-----3---------------------------------|
B|--3-----3---------------------------------|
G|--0-----0---------------------------------|
D|--1-----0---------------------------------|
A|--2-----2---------------------------------|
E|--------3---------------------------------|


[Final] G  C9  G
00:00 / 00:00
Otros videos de esta canción
Repetir
Otros videos de esta canción
Composición de Vinni Miranda / Gustavo Martins / Waleria Leao / Rafael Quadros
Colaboración y revisión:
  • Pietro Henrique"
  • Edgar Barddal
  • Fabiano Oliveira
207 vistas
    • ½ Tono
    • A
    • Bb
    • B
    • C
    • Db
    • D
    • Eb
    • E
    • F
    • F#
    • G
    • Ab
  • Agregar a la lista

    0 comentarios

    Ver todos los comentarios

    ¿Lograste tocar?

    4 Tocaron 1 Aún no

    ¡Graba un video tocando Vida Torta y envíanoslo!

    00:00 / 00:00
    OK