Cifra Club

Capitan

Idlewild

Cifrado: Versão 2 (guitarra y guitarra eléctrica)
Selo Cifra Club: esta cifra foi revisada para atender aos critérios oficiais da nossa Equipe de Qualidade.
tono: F
Verse:
E|-----------------------------------------------------|
B|-----------------------------------------------------|
G|--5-5-5-5-5-5-5-5-------------------3-3-3-3-3-3-3-3--|
D|--5-5-5-5-5-5-5-5--5-5-5-5-5-5-5-5--3-3-3-3-3-3-3-3--|
A|--3-3-3-3-3-3-3-3--5-5-5-5-5-5-5-5--1-1-1-1-1-1-1-1--|
E|-------------------3-3-3-3-3-3-3-3-------------------|

Chorus:
E|---------------|
B|-10------6--3--|
G|-10--9---7--3--|
D|-10--10--7--3--|
A|-8---7---5--1--|
E|---------------|

Bridge:
E|---------|
B|-6--5--3-|
G|-7--5--3-|
D|-7--5--3-|
A|-5--3--1-|
E|---------|
Otros videos de esta canción
    1 exhibiciones
      • ½ Tono
      • A
      • Bb
      • B
      • C
      • Db
      • D
      • Eb
      • E
      • F
      • F#
      • G
      • Ab
    • Agregar a la lista

    Afinación de cifrado

    Afinador online

      OK