Cifra Club

Run

Ignite

Cifrado: Principal (guitarra y guitarra eléctrica)
tono: C
intro/verse:                                            
e|---------------------------------------------------------------------------|
B|---------------------------------------------------------------------------|
G|---------------------------------------------------------------------------|
D|---------------------------------------------------------------------------|
A|--------------3------------------------------------------------------------|
E|--5-5-5-1-1-1---3-5-5-5-5-5-5-5--------------------------------------------|

intro/verse pt.2:
e|---------------------------------------------------------------------------|
B|---------------------------------------------------------------------------|
G|------------5--------------------------------------------------------------|
D|--7-7--3-3--5--5-7-7-7-7-7-7-7---------------------------------------------|
A|--7-7--3-3--3--5-7-7-7-7-7-7-7---------------------------------------------|
E|--5-5--1-1-----3-5-5-5-5-5-5-5---------------------------------------------|

chorus:
e|---------------------------------------------------------------------------|
B|---------------------------------------------------------------------------|
G|--------------101010101010-------------5-----------------------------------|
D|--7-7-7-7-7-7-101010101010-5-5-5-5-5-5-5-5-5-5-5-5-------------------------|
A|--7-7-7-7-7-7-8-8-8-8-8-8--5-5-5-5-5-5-3-5-5-3-5-5-------------------------|
E|--5-5-5-5-5-5--------------3-3-3-3-3-3---3-3-3-3-3-------------------------|

e|---------------------------------------------------------------------------|
B|---------------------------------------------------------------------------|
G|---------------------------------------5-----------------------------------|
D|--7-7-7-7-7-7--------------5-5-5-5-5-5-5-5-5-5-5-5-------------------------|
A|--7-7-7-7-7-7-8-8-8-8-8-8--5-5-5-5-5-5-3-5-5-3-5-5-------------------------|
E|--5-5-5-5-5-5-8-8-8-8-8-8--3-3-3-3-3-3---3-3-3-3-3-------------------------|

bridge: 

e|---------------------------------------------------------------------------|
B|---------------------------------------------------------------------------|
G|----------------------------------------------5----------------------------|
D|--7-7-7---7---7-7-7---7---5-5-5---5---3-3-3---5-5--------------------------|
A|--7-7-7---7---7-7-7---7---5-5-5---5---3-3-3---3-5--------------------------|
E|--5-5-5---5---5-5-5---5---3-3-3---3---1-1-1-----3--------------------------|
    \pm/        \pm/        \pm/        \pm/

outro:

intro and verse: 
e|---------------------------------------------------------------------------|
B|---------------------------------------------------------------------------|
G|--------5------------------------------------------------------------------|
D|7---3---5---7--------------------------------------------------------------|
A|7---3---3---7--------------------------------------------------------------|
E|5/\-1/\--/\-5/\-palm mutes-------------------------------------------------|

chorus 
e|---------------------------------------------------------------------------|
B|---------------------------------------------------------------------------|
G|---10-------------10-------------------------------------------------------|
D|7--10--10---5--7--10---10---5----------------------------------------------|
A|7--8---10---5--7--8----10---5----------------------------------------------|
E|5------8----3--5-------8----3----------------------------------------------|

bridge:
e|---------------------------------------------------------------------------|
B|---------------------------------------------------------------------------|
G|---------------------------------------------------------------------------|
D|7----7-----7---------------------------------------------------------------|
A|7------5------5------------------------------------------------------------|
E|5--5-----5-----------------------------------------------------------------|

 
intro                         
verse
chorus
verse 
bridge
chorus


nineeeee_@hotmail.com
Composición de Ignite
Colaboración y revisión:
  • Janine Fornaciari
17 vistas
    • ½ Tono
    • A
    • Bb
    • B
    • C
    • Db
    • D
    • Eb
    • E
    • F
    • F#
    • G
    • Ab
  • Agregar a la lista

    0 comentarios

    Ver todos los comentarios

    ¿Lograste tocar?

    0 Tocaron 0 Aún no

    ¡Graba un video tocando Run y envíanoslo!

    00:00 / 00:00
    Outros vídeos desta música
    Repetir Calidad Automático
    Outros vídeos desta música
    00:00 / 00:00
    Automático
    OK