Cifra Club

Aprenda

Demons

Imagine Dragons

Tab de bajo: Principal
G|-----------------------------------------------------|
D|-----------------------------------------------------|
A|-6------5-1--------2-3----------1-----------------5--|
E|------------------------------------4----------------|

Refrão
G|-----------------------------------------------------------------|
D|-----------------------------------------------------------------|
A|-6-6-6-6-6-6-6-5-1-1-1-1-1-1-1-2-3-3-3-3-3-3-3-1---------------5-|
E|-------------------------------------------------4-4-4-4-4-4-6---|
Composição de A. Grant / Ben McKee / Dan Reynolds / Josh Mosser / Wayne Sermon
Colaboración y revision:
  • Alonso Afonso
378 reproducciones

0 comentarios

Ver todos os comentários

¿Conseguiste tocar?

4 Tocaram 0 Ainda não

Grave um vídeo tocando Demons e nos envie!

00:00 / 00:00
outros vídeos desta música
repetir qualidade Automático
Outros vídeos desta música
00:00 / 00:00
Automático
OK