Cifra Club

I Was Me

Imagine Dragons

Tablatura: Principal (guitarra)
Tom: D Afinação: Db Gb Cb E G Db
Afinação:
6º E -- > C#A -- > F#D -- > BG -- > EB -- > G#E -- > C#


           Introdução
        2x            2x
C#|-------------|-------------|
F#|--------5----|-------------|
B|----0h2------|-------4-----|
E|-------------|---0h2-------|
G#|--3----------|-------------|
C#|-------------|-0-----------|

       Primeira Parte
  (It's just another day...)
        4x             4x        
C#|-------------|-------------|
F#|--------5----|-------------|
B|----0h2------|-------4-----|
E|-------------|---0h2-------|
G#|--3----------|-------------|
C#|-------------|-0-----------|

("One step at a time", they say...)
         4x           4x 
C#|--------------|-------------|
F#|--------------|-------------|
B|-------0h2----|---------4---|
E|-----3-----3--|----0h2------|
G#|---3----------|-------------|
C#|-1------------|--3----------|

                  Refrão
            Acordes(formas de ...)

C#|---0---|---0---|---0---|---1---|
F#|---5---|---3---|---8---|---1---|
B|---0---|---4---|---9---|---2---|
E|---5---|---5---|---10--|---3---|
G#|---3---|---2---|---7---|---3---|
C#|---x---|---x---|---x---|---1---|
      C      Bm5+    Em5+     F


C        Bm5+            Em5+              F
  If I recover, will you take me back again?
C          Bm5+           Em5+               F
  I'm just another trying hard to fit right in
C                          Bm5+
But the photographs remind me
   Em5+            F
Of who I used to be
C             Bm5+             Em+
  If only I could go back when I
          F
  I was me


       Ultima parte
C#|---0---|
F#|---0---|
B|---5---|
E|---5---|
G#|---3---|
C#|---x---|
      C

C                       Em5+
Give me strength to fight
C        Em5+           F
Help me feel alive again
C                  Em5+
Make me whole inside
C                     Em5+        F
Instead this hole inside is killing me

Oh, I'm begging you

( Repete o refrão )
reproducciones 213
Acordes para:
    Composição: Dan Reynolds Colaboración y revision:
    • Saymon Fernandes

    0 comentarios

    mostrar más comentarios

    ¿Conseguiste tocar?

    0 tocaron 0 aún no

    ¡Graba un vídeo tocando I Was Me y envianoslo!

    00:00 / 00:00
    outros vídeos desta música
    repetir qualidade Automático
    Outros vídeos desta música
    00:00 / 00:00
    Automático
    OK