Cifra Club

Radioactive

Imagine Dragons

Tablatura: Principal (guitarra)
Tom: Am
[Intro] Am  C  G  D  
        Am  C  G  D
        Am  C  G  D
        Am  C  G  D  Am

Parte 1 de 2 

E|-------------------------12---------------|
B|-------13-------15-------------15---------|
G|-12-14----12-14----12-14----14------------|
D|------------------------------------------|
A|------------------------------------------|
E|------------------------------------------|

E|------------------------------------------|
B|-------13-------15-------13-13------------|
G|-12-14----12-14----12-14-------14---------|
D|------------------------------------------|
A|------------------------------------------|
E|------------------------------------------|

E|-------------------------12---------------|
B|-------13-------15-------------15---------|
G|-12-14----12-14----12-14----14------------|
D|------------------------------------------|
A|------------------------------------------|
E|------------------------------------------|

E|------------------------------------------|
B|-------13-------15-------13-13------------|
G|-12-14----12-14----12-14-------14---------|
D|------------------------------------------|
A|------------------------------------------|
E|------------------------------------------|

E|-------------------------12---------------|
B|-------13-------15-------------15---------|
G|-12-14----12-14----12-14----14------------|
D|------------------------------------------|
A|------------------------------------------|
E|------------------------------------------|

E|------------------------------------------|
B|-------13-------15-------13-13------------|
G|-12-14----12-14----12-14-------14---------|
D|------------------------------------------|
A|------------------------------------------|
E|------------------------------------------|

E|-------------------------12---------------|
B|-------13-------15-------------15---------|
G|-12-14----12-14----12-14----14------------|
D|------------------------------------------|
A|------------------------------------------|
E|------------------------------------------|

E|------------------------------------------|
B|-------13-------15-------13-13------------|
G|-12-14----12-14----12-14-------14---------|
D|------------------------------------------|
A|------------------------------------------|
E|------------------------------------------|

E|-------------------------12---------------|
B|-------13-------15-------------15---------|
G|-12-14----12-14----12-14----14------------|
D|------------------------------------------|
A|------------------------------------------|
E|------------------------------------------|

E|------------------------------------------|
B|-------13-------15-------13-13------------|
G|-12-14----12-14----12-14-------14---------|
D|------------------------------------------|
A|------------------------------------------|
E|------------------------------------------|

Parte 2 de 2

E|------8------8------8------8------8-------|
B|---10-----10-----10-----10-----10---------|
G|-9------9------9------9------9------------|
D|------------------------------------------|
A|------------------------------------------|
E|------------------------------------------|

E|------8------8------8------8--8---8---8---|
B|---10-----10-----10-----10----10--10--10--|
G|-9------9------9------9-------9---9---9---|
D|------------------------------------------|
A|------------------------------------------|
E|------------------------------------------|

[Primeira Parte]

Am           C              G
  I'm waking up to ash and dust
            D                  Am
I wipe my brow and I sweat my rust
              C            G
I'm breathing in the chemicals
Am             C           G
  I'm breaking in, shaping up 
              D
Then checking out on the prison bus
Am        C             G
  This is it, the apocalypse
  
Whoa

[Refrão]

D            Am            C
  I'm waking up, I feel it in my bones
  G                D
Enough to make my systems blow
 Am                     C
Welcome to the new age,   to the new age
 G                      D
Welcome to the new age,   to the new age
Am         C     
   Whoa-oh,  whoa
    G               D
I'm   radioactive, radioactive
Am         C     
   Whoa-oh,  whoa
    G               D
I'm   radioactive, radioactive

( Am  C  G  D )
( Am  C  G  D )

[Repete Primeira Parte]

Am                  C          G
   I raise my flags,  dye my clothes
          D              Am
It's a revolution, I suppose
                  C              G
We're painted red   to fit right in
     D
Whoa

Am                 C         G
   I'm breaking in,  shaping up
              D                     Am
Then checking out on the prison bus
           C           G
This is it,  the apocalypse
  
Whoa

[Refrão]

D            Am            C
  I'm waking up, I feel it in my bones
  G                D
Enough to make my systems blow
 Am                     C
Welcome to the new age,   to the new age
 G                      D
Welcome to the new age,   to the new age
Am         C     
   Whoa-oh,  whoa
    G               D
I'm   radioactive, radioactive
Am         C     
   Whoa-oh,  whoa
    G               D
I'm   radioactive, radioactive

[Segunda Parte]

Am          C    G           D
All systems go, sun hasn't died
 Am         C        G             D
Deep in my bones, straight from inside

[Repete Refrão]

           Am            C
I'm waking up, I feel it in my bones
  G                D
Enough to make my systems blow
 Am                     C
Welcome to the new age,   to the new age
 G                      D
Welcome to the new age,   to the new age
Am         C     
   Whoa-oh,  whoa
    G               D
I'm   radioactive, radioactive
Am         C     
   Whoa-oh,  whoa
    G               D          Am
I'm   radioactive, radioactive
reproducciones 62.006

0 comentarios

mostrar más comentarios

¿Conseguiste tocar?

430 tocaron 21 aún no

¡Graba un vídeo tocando Radioactive y envianoslo!

00:00 / 00:00
outros vídeos desta música
repetir qualidade Automático
Outros vídeos desta música
00:00 / 00:00
Automático
Capítulos
  • Tocando a música
  • Dicas iniciais
  • Acordes da música
  • Tocando Introdução
  • Ensinando Introdução
  • Ensinando Introdução (Base)
  • Tocando Primeira Parte e Refrão
  • Ensinando ritmo da música
  • Tocando Segunda Parte
  • Ensinando Segunda Parte
  • Encerramento
  • Equipamentos / Erros de gravação
OK