Cifra Club

Release

Imagine Dragons

Tablatura: Principal (guitarra)
Tom: F# (con acordes en la forma de D) Capo en 4ª casa
Parte 1 - 5x
Parte 2
Ponte
Parte 3
Parte 1 - 5x
Ponte



Parte 1: 5x
                Bm                                   A
E|--------------------------------|-----------------------------------|
B|---------7----------------------|----------6------------------------|
G|------------8-------------------|------------6----------------------|
D|------8-------8-----------------|-------6------6--------------------|
A|----6---------------------------|-----4-----------------------------|
E|--------------------------------|-----------------------------------|

                Em7
E|--------------------------------|
B|--------------------------------|
G|------4----------4--------------|
D|----6---6----------6------------|
A|--------------------------------|
E|--4-------4-4-4------4----------|

Parte 2: 
               D4/G (2x)                             F#5+/E (2x)
E|--------------------------------|-----------------------------------|
B|--------7----------7------------|-----------------------------------|
G|----------4-----------4---------|---------6-----------6-------------|
D|------4-----4-----------4-------|-----------8-----------8-----------|
A|--------------------------------|-----9-9------9-9-9----------------|
E|---7----------7-7---------------|-----------------------------------|

                 F#5+/E (1x)                        F#11 (1x)
E|-----------------------------------|--------------------------------|
B|-----------------------------------|-----------7--------------------|
G|-----------8-----------8-----------|-------------8------------------|
D|-----------8-----------8-----------|---------7-----7----------------|
A|-----9-9------9-9-9----------------|--------------------------------|
E|-----------------------------------|-------7------------------------|

Ponte:
               D4/G
E|----------------------------------------------------------------------|
B|-------7----------7-------------7--------7----------------------------|
G|---------4----------4-------------4-----------------------------------|
D|-----4-----4----------4-------4-----4---------------------------------|
A|----------------------------------------------------------------------|
E|---7---------7-7---------7-7-------------7----------------------------|


Parte 3:

                A11 (2x)                         Em (2x)
E|--------------------------------|-----------------------------------|
B|-------9--------9---------------|-----------------------------------|
G|------------10------------------|-------4------4--------------------|
D|--------------------------------|------------6----------------------|
A|--------------------------------|-----------------------------------|
E|-------9--9-------9-------------|-------4--4----4-------------------|

               D4/G (2x)                         E4 (2x)
E|--------------------------------|-----------------------------------|
B|-----7-------7------------------|-----------------------------------|
G|----------4---------------------|--------6-------6------------------|
D|--------------------------------|-------------6---------------------|
A|--------------------------------|--------4--4-----------------------|
E|-----7--7------7----------------|-------------------4---------------|
             
                A11 (2x)                         Em (2x)
E|--------------------------------|-----------------------------------|
B|-------9--------9---------------|-----------------------------------|
G|------------10------------------|-------4------4--------------------|
D|--------------------------------|------------6----------------------|
A|--------------------------------|-----------------------------------|
E|-------9--9-------9-------------|-------4--4----4-------------------|

               D4/G (2x)                         F#5+/E (1x)
E|--------------------------------|-----------------------------------|
B|-----7-------7------------------|---------6-------------------------|
G|----------4---------------------|-----------------------------------|
D|--------------------------------|------8----8-----------------------|
A|--------------------------------|----9--------9---------------------|
E|-----7--7------7----------------|-----------------------------------|

               F#11 (1x)
E|--------------------------------|
B|------7-------------------------|
G|--------8-----------------------|
D|----7-----7---------------------|
A|--------------------------------|
E|--7-----------------------------|
reproducciones 356
Acordes para:
    Colaboración y revision:
    • Hugo Tozatto

    0 comentarios

    mostrar más comentarios

    ¿Conseguiste tocar?

    0 tocaron 0 aún no

    ¡Graba un vídeo tocando Release y envianoslo!

    00:00 / 00:00
    outros vídeos desta música
    repetir qualidade Automático
    Outros vídeos desta música
    00:00 / 00:00
    Automático
    OK