Cifra Club

Smoke And Mirrors

Imagine Dragons

Tablatura: Principal (guitarra)
Tom: G
[Intro]

E|8----8----8----8----|
B|----8----8----8----8|
G|---9----9----9----9-| 
D|--------------------|
A|--------------------|
E|--------------------|

[Verse 1]
E|8----8----8----8----|7----7----7----7----|--------------------|--------------------|
B|----8----8----8----8|----8----8----8----8|10--8-10-8-10-8-10-8|-10-8-10-8-10-8-10-8|
G|---9----9----9----9-|---9----9----9----9-|---9--- 9----9----9-|---9----9----9----9-|
D|--------------------|--------------------|--------------------|--------------------|
A|--------------------|--------------------|--------------------|--------------------|
E|--------------------|--------------------|--------------------|--------------------|
E|0------0------0-----|0------0------0-----|
B|1------1------1-----|1------1------1-----|
G|2------2------2-----|2------2------2-----|
D|2------2------2-----|2------2------2-----|
A|0------0------0-----|0------0------0-----|
E|x------x------x-----|x------x------x-----|

[Chorus 1] 
        C              G
All I believe, Is it a dream?
            Am
That comes crashing down on me?
            C
All that I own
            G                 Am    E
Is it just smoke and mirrors?
               C    G    Am
I want to believe

[Instrumental]

E|-8--|-7--|-5--|-4--|
B|----|----|----|----|
G|----|----|----|----|
D|----|----|----|----|
A|----|----|----|----|
E|----|----|----|----|

[Verse 2]

E|8----8----8----8----|7----7----7----7----|--------------------|--------------------|
B|----8----8----8----8|----8----8----8----8|10--8-10-8-10-8-10-8|-10-8-10-8-10-8-10-8|
G|---9----9----9----9-|---9----9----9----9-|---9--- 9----9----9-|---9----9----9----9-| (x5)
D|--------------------|--------------------|--------------------|--------------------|
A|--------------------|--------------------|--------------------|--------------------|
E|--------------------|--------------------|--------------------|--------------------|

E|0------0------0-----|0------0------0-----|
B|1------1------1-----|1------1------1-----|
G|2------2------2-----|2------2------2-----|
D|2------2------2-----|2------2------2-----|
A|0------0------0-----|0------0------0-----|
E|x------x------x-----|x------x------x-----|

[Chorus 2]
        C              G
All I believe, Is it a dream?
            Am
That comes crashing down on me?
            C
All that I own
            G                 Am    E
Is it just smoke and mirrors?
               C    G    Am
I want to believe

[Instrumental]
E|-8--|-7--|-5--|-4--|
B|----|----|----|----|
G|----|----|----|----|
D|----|----|----|----|
A|----|----|----|----|
E|----|----|----|----|

[Bridge] (x2)
C G Am Am

[Chorus 3] 
        C              G
All I believe, Is it a dream?
            Am
That comes crashing down on me?
            C
All that I own
            G                 Am    E
Is it just smoke and mirrors?
               C    G    Am
I want to believe

[Instrumental]
E|-8--|-7--|-5--|-4--|
B|----|----|----|----|
G|----|----|----|----|
D|----|----|----|----|
A|----|----|----|----|
E|----|----|----|----|

[Solo]
E|---------------------------------------------------------------------------------------|
B|---------------------------------------------------------------------------------------|
G|9h11-12-12-11-9--9-11-7~-7/12-12-11-9~-7-9-9-11---------------------7-7-7--------------|
D|------------------------------------------------9-8-8b8b8b---------9-----9-7--------5--|
A|-----------------------------------------------------------10-7~--7----------7~-5-7---7|
E|---------------------------------------------------------------------------------------|

e|12h14-15-15-14-12--12-12-14-------15-15-14-12--12--12-12-14---------------|
B|-----------------15---------15~-15---------------15-----------------------|
G|------------------------------------------------------------14-14h16p14---|
D|-----------------------------------------------------------------------14-|
A|--------------------------------------------------------------------------|
E|--------------------------------------------------------------------------|

E|15-15-17-19--15-15-17-19--19-19-20-20-19-17--17-19-19-20-19|
B|-----------------------------------------------------------|
G|-----------------------------------------------------------|
D|-----------------------------------------------------------|
A|-----------------------------------------------------------|
E|-----------------------------------------------------------|


reproducciones 11
Acordes para:
    Colaboración y revision:
    • Camila Seabra

    0 comentarios

    mostrar más comentarios

    ¿Conseguiste tocar?

    0 tocaron 1 aún no

    ¡Graba un vídeo tocando Smoke And Mirrors y envianoslo!

    00:00 / 00:00
    outros vídeos desta música
    repetir qualidade Automático
    Outros vídeos desta música
    00:00 / 00:00
    Automático
    OK