Cifra Club

Tiptoe

Imagine Dragons

Tablatura: Principal (guitarra)
Tom: Db (con acordes en la forma de A) Capo en 4ª casa
E|--------------------------|
B|---2-------0--------------|
G|-----4-------2------------|2x
D|--4------2----------------|
A|--------------------------|
E|--------------------------|

E|----------0---------------|
B|------0-2-----------------|
G|----2---------------------|2x
D|--4-----------------------|
A|--------------------------|
E|--------------------------|

E|--------------------------|
B|---2-------0--------------|
G|-----4-------2------------|2x
D|--4------2----------------|
A|--------------------------|
E|--------------------------|

E|----------0---------------|
B|------0-2-----------------|
G|----2---------------------|2x
D|--4-----------------------|
A|--------------------------|
E|--------------------------|



F#m             A                       D
In the morning light let my roots take flight
              A            E       F#m
Watch me from above like a vicious dove
                  A
They don't see me come  who can blame them?
D                                A        E
They never seem to catch my eye but I never wondered why

Pré-Refrão:
D              A
I won't fall asleep
F#m             E
I won't fall asleep

Refrão:
F#m       A              (E)
Hey yeah  don't let 'em know we're coming
D         A      E
Hey yeah  tiptoe higher
F#m                A                      (E)
Take some time to simmer down  keep your head down low
D         A      E
Hey yeah  tiptoe higher

Instrumental: F#m  A  D E

F#m               A                     D
From your slanted view see the morning dew
              A                E    F#m
Sink into the soil  watch the water boil
                  A
They won't see me run  who can blame them?
D                             A           E
They never look to see me fly  so I never have to lie

Pré-Refrão
D              A
I won't fall asleep
F#m             E
I won't fall asleep

(Refrão)
F#m       A              (E)
Hey yeah  don't let 'em know we're coming
D         A      E
Hey yeah  tiptoe higher
F#m                A                      (E)
Take some time to simmer down  keep your head down low
D         A      E
Hey yeah  tiptoe higher

Dica:Se preferir sem o capotraste, suba 4 tons(até o tom D)
reproducciones 670
Acordes para:
    Composição: Imagine Dragons Colaboración y revision:
    • Joana Caass
    • Giovanna Almeida
    • Júlio César

    0 comentarios

    mostrar más comentarios

    ¿Conseguiste tocar?

    7 tocaron 0 aún no

    ¡Graba un vídeo tocando Tiptoe y envianoslo!

    00:00 / 00:00
    outros vídeos desta música
    repetir qualidade Automático
    Outros vídeos desta música
    00:00 / 00:00
    Automático
    OK