Cifra Club

Aprenda

West Coast

Imagine Dragons

Tablatura: Principal (guitarra)
tono: A
[Intro]

   Am         F  C           Am       F   C             
E|-17-----17-15-----------------------------------------------|
B|-----17-------15/17--17\13-13~--15-13-15/17~----------------|
G|------------------------------------------------------------|
D|------------------------------------------------------------|
A|------------------------------------------------------------|
E|------------------------------------------------------------|

   Am         F  C           Am        G    C
E|-17-----17-15-----------------------------------------------|
B|-----17-------15/17--17\13-13~-----------13~----------------|
G|-------------------------------14-12-14---------------------|
D|------------------------------------------------------------|
A|------------------------------------------------------------|
E|------------------------------------------------------------|

         Am        F     C
One more day we'll spend together
         Am                    F       C
Lay your eyes, look up upon me for the better
      Am       F         C
Oh, I know I'm worse for weather
       Am            G    C
But my love, I won't give up

         Am      F       C
Spend my days cursing my soul
        Am                         F       C
Wishing I could paint my scars and make me whole
      Am     F        C
Oh, I know I could be better
       Am            G    C
But my love, I won't give up

F                    C
I ain't no Superman, I ain't no Holy Ghost
G                                                Am
I'm just the one that keeps you up at night, you love the most
F                        C
I'll be your strong man, I'll be your West Coast
G                                                       Am
I'll be the sun, I'll be the waves, I'll be the one you love the most

F                   C
Ooh, hey, hey, hey, oh
G
I'll be, I'll be, I'll be, I'll be
             Am
I'll be your West Coast, honey
F                   C
Ooh, hey, hey, hey, oh
G
I'll be, I'll be, I'll be, I'll be
             Am
I'll be your West Coast, honey

   Am          F    C               Am        F   C             
E|-17-----17-15-----------------------------------------------|
B|-----17-------15/17--17\13-13~--15-13-15/17-----------------|
G|------------------------------------------------------------|
D|------------------------------------------------------------|
A|------------------------------------------------------------|
E|------------------------------------------------------------|

     Am          F   C                Am       G    C
E|-17-----17-15-----------------------------------------------|
B|-----17-------15/17--17\13-13~--------13--------------------|
G|--------------------------------12-14-----------------------|
D|------------------------------------------------------------|
A|------------------------------------------------------------|
E|------------------------------------------------------------|

               Am      F         C
I'll change my ways if you would stay
         Am                             F  C
All your tears that you have cried will go away
         Am       F        C
Oh, just grant me one more day
       Am                 G    C
Oh, my love, please don't give up

        Am    F     C
See the Devil at my door
          Am                       F    C
I see the future of the ones that I've ignored
              Am      F     C
I guess I was born to be at war
       Am            G    C
But my love, I won't give up
       Am                 G    C
So, my love, please don't give up

F                    C
I ain't no Superman, I ain't no Holy Ghost
G                                                Am
I'm just the one that keeps you up at night, you love the most
F                        C
I'll be your strong man, I'll be your West Coast
G                                                       Am
I'll be the sun, I'll be the waves, I'll be the one you love the most

F                   C
Ooh, hey, hey, hey, oh
G
I'll be, I'll be, I'll be, I'll be
             Am
I'll be your West Coast, honey
F                   C
Ooh, hey, hey, hey, oh
G
I'll be, I'll be, I'll be, I'll be
             Am
I'll be your West Coast, honey

F                   C
Ooh, hey, hey, hey, oh
G
I'll be, I'll be, I'll be, I'll be,
             Am
I'll be your West Coast, honey (I get that feeling)
F                   C
Ooh, hey, hey, hey, oh
G
I'll be, I'll be, I'll be, I'll be
             Am
I'll be your West Coast, honey (I get that feeling)

( F  G  C )
Composição de Ben McKee / Dan Reynolds / Daniel Platzman / Wayne Sermon
Colaboración y revision:
  • Hanan Fernandez
298 reproducciones
    • ½ Tono
    • A
    • Bb
    • B
    • C
    • Db
    • D
    • Eb
    • E
    • F
    • F#
    • G
    • Ab
  • Adicionar à lista

    0 comentarios

    Ver todos os comentários

    ¿Conseguiste tocar?

    2 Tocaram 0 Ainda não

    Grave um vídeo tocando West Coast e nos envie!

    00:00 / 00:00
    outros vídeos desta música
    repetir qualidade Automático
    Outros vídeos desta música
    00:00 / 00:00
    Automático
    OK