Cifra Club

Who We Are

Imagine Dragons

Tablatura: Principal (guitarra)
Tom: A
INTRO: F#m A E Dm  C# (x2) F#m (x2)


E|9----9----9----9----9-----|-9---9---9---9---9----|-7--7--7--7--7---|-10----10----10----10----10----|
B|-10---10---10---10---10---|--10--10--10--10--10--|--9--9--9--9--9--|---12----12----12----12----12--|
G|---11---11---11---11---11-|----9---9---9---9---9-|---9--9--9--9--9-|-----11----11----11----11----11|
D|--------------------------|----------------------|-----------------|-------------------------------|
A|--------------------------|----------------------|-----------------|-------------------------------|
E|--------------------------|----------------------|-----------------|-------------------------------|

E|-9---9---9---9---9-10-|-9---9---9---9---9----|-9----9---9----9----9-----|-9----9----9-----------|
B|--9---9---9---9-------|--9---9---9---9---9---|--10---10--10---10---10---|--10---10---10---------|
G|---10--10--10--10-----|---10--10--10--10--10-|----11--11---11---11---11-|----11---11---11------|
D|----------------------|----------------------|--------------------------|-----------------------|
A|----------------------|----------------------|--------------------------|-----------------------|
E|----------------------|----------------------|--------------------------|-----------------------|

VERSE:

F#m
Up in the morning, up in the evening.
A                                              G#m
Picking down talks when the birds get back to me.
        Bm
Oh, to me.

F#m
Up on the mountain, down in the king's lair.
A                                             G#m
Pushing these boxes in the heat of the afternoon.
           Bm
Oh, afternoon.


pre refrão

C#                           D
We were never welcome here.
C#                             F#m
We were never welcome here at all.

Noooooooooooo.


REFRAO

     F#m
It's who we are.
                        A
Doesn't matter if we've gone too far.
                       G#m
Doesn't matter if it's all okay.
                       Bm
Doesn't matter if it's not our day.
           C#
Oh won't you save us, what we are,
                                        F#m
Don't look clear, it's all uphill from here.

Oohhhhhhhhhh.

VERSE:

F#m
Up in the attic, down in the cellar.
A                                  G#m
Lost in a static, coming back for more.
         Bm
Oh, for more

F#m
Out with the reason, in with the season.
A                                   G#m
Taking down names in my book of jealousy.
     Bm
Jealousy.

C#                           D
We were never welcome here.
C#                             F#m
We were never welcome here at all.

Noooooooooooo.

     F#m
It's who we are.
                        A
Doesn't matter if we've gone too far.
                       G#m
Doesn't matter if it's all okay.
                       Bm
Doesn't matter if it's not our day.
             F#m
Because it's who we are.
                        A
Doesn't matter if we've gone too far.
                       G#m
Doesn't matter if it's all okay.
                       Bm
Doesn't matter if it's not our day.
           C#
Oh won't you save us, what we are,
                                        F#m
Don't look clear, it's all uphill from here.

Oohhhhhhhhhh.

PONTE

                 F#m
They say we're crazy.
                 A
They say we're crazy.
                 G#m
They say we're crazy.
                 Bm
They say we're crazy.
                 C#
They say we're crazy.

They say we're crazy.
                 F#m
They say we're crazy.
                  N.C.
They say we're crazy.

CHORUS:

     F#m
It's who we are.
                        A
Doesn't matter if we've gone too far.
                       G#m
Doesn't matter if it's all okay.
                       Bm
Doesn't matter if it's not our day.
             F#m
Because it's who we are.
                        A
Doesn't matter if we've gone too far.
                       G#m
Doesn't matter if it's all okay.
                       Bm
Doesn't matter if it's not our day.
           C#
Oh won't you save us, what we are,
                                        F#m
Don't look clear, it's all uphill from here.

(They say we're crazy
They say we're crazy)

OUTRO:

F#m A G#m Bm C# (x2) F#m
reproducciones 560
Acordes para:
    Composição: Imagine Dragons Colaboración y revision:
    • Daniel Arcanjos
    • Débora Coutinho

    0 comentarios

    mostrar más comentarios

    ¿Conseguiste tocar?

    12 tocaron 0 aún no

    ¡Graba un vídeo tocando Who We Are y envianoslo!

    00:00 / 00:00
    outros vídeos desta música
    repetir qualidade Automático
    Outros vídeos desta música
    00:00 / 00:00
    Automático
    OK