Cifra Club

Erotisk Politi

Imperiet

Cifrado: Principal (guitarra y guitarra eléctrica)
Selo Cifra Club: esta cifra foi revisada para atender aos critérios oficiais da nossa Equipe de Qualidade.
tono: D
Guitar 1:
E|------------------------------------------------------------------|
B|---*7------*12------------------*7-------------------*7-----------|
G|-------------------------------------------------------------*7---|
D|-------*7---------------------------*7-------------------*7-------|
A|-----------------------------*9-----------------------------------|
E|------------------------------------------------------------------|

Guitar 2:
E|----------------------------------------------|
B|---3--3-5-3-2-3-------------3--3-5-3-2--------|
G|---4--4-4-4-2-4-------------4--4-4-4-2-4------|
D|---------------------------------------5------|
A|----------------------------------------------|
E|----------------------------------------------|


Refräng:

Dårar...
E|--------------------------------------------------|
B|--------------------------------------------------|
G|---4----4----4-----------4----4----4--------------|
D|---4----4----4-5-------5-4----4----4-5-------5----|
A|---2----2----2-5-------5-2----2----2-5-------5----|
E|---------------3-------3-------------3-------3----|
Dårar..                    Dansa med...
E|----------------------------------------------|
B|----------------------------------------------|
G|---4----4----4-----------2-------2-------2----|
D|---4----4----4-5-------5-2-------2-------2----|
A|---2----2----2-5-------5-0-------0-------0----|
E|---------------3-------3----------------------|
Otros videos de esta canción
    3 exhibiciones
      • ½ Tono
      • A
      • Bb
      • B
      • C
      • Db
      • D
      • Eb
      • E
      • F
      • F#
      • G
      • Ab
    • Agregar a la lista

    Afinación de cifrado

    Afinador online

      OK