Cifra Club

The Chosen Pessimist

In Flames

Cifrado: Principal (guitarra y guitarra eléctrica)
Selo Cifra Club: esta cifra foi revisada para atender aos critérios oficiais da nossa Equipe de Qualidade.
tono: G
E|---------------------------------------------------|
B|---------------------------------------------------|
G|------0~~~~~~~~~~0~~~~~~~0~~~~~~~0~~~~~------------|
D|----2----------2-------0-------0-------------------|
A|-------------0-----------------------------3-------|
E|--0------------------3-------3-------3-3h5---------|

(Guitar 2)
E|---------------------------------------------------|
B|---------------------------------------------------|
G|---------------------------------------------------|
D|---------------------------------------------------|
A|---------------------------------------------------|
E|---------------------------------------------------|

(Guitar 1)
E|------------------------------------------|
B|------------------------------------------|
G|------0~~~~~~~~~~0~~~~~~~0~~~~~~~0~~~~~---|
D|----2----------2-------0-------2----------|
A|-------------0---------------3------------|
E|--0------------------3--------------------|

(Guitar 2)
E|------------------------------------------|
B|------------------------------------------|
G|------------------------------------------|
D|------------------------------------------|
A|------------------------------------------|
E|------------------------------------------|

(0:17)
(Guitar 1)
E|---------------------------------------------------|
B|---------------------------------------------------|
G|------0~~~~~~~~~~0~~~~~~~0~~~~~~~0~~~~~------------|
D|----2----------2-------0-------0-------------------|
A|-------------0-----------------------------3-------|
E|--0------------------3-------3-------3-3h5---------|

(Guitar 2)
E|---------------------------------------------------|
B|------0~~~~~~~~~~~~~~~~~~~~~~~~~~~~~~~~~~~~~~~-----|
G|---------------------------------------------------|
D|----2----------------------------------------------|
A|---------------------------------------------------|
E|---------------------------------------------------|

(Guitar 1)
E|------------------------------------------|
B|------------------------------------------|
G|------0~~~~~~~~~~0~~~~~~~0~~~~~~~0~~~~~---|
D|----2----------2-------0-------2----------|
A|-------------0---------------3------------|
E|--0------------------3--------------------|

(Guitar 2)
E|------------------------------------------|
B|------0~~~~~~~~~~~~~~~~~~~~~~~~~~~~~~-----|
G|---------------------------------0~~~~~---|
D|----2--------------------------2----------|
A|------------------------------------------|
E|------------------------------------------|

(0:32)
(Guitar 1)
E|---------------------------------------------------|
B|---------------------------------------------------|
G|------0~~~~~~~~~~0~~~~~~~0~~~~~~~0~~~~~------------|
D|----2----------2-------0-------0-------------------|
A|-------------0-----------------------------3-------|
E|--0------------------3-------3-------3-3h5---------|

(Guitar 2)
E|---------------------------------------------------|
B|------0~~~~~~~~~~0~~~~~~~0~~~~~~~0~~~~~------------|
G|---------------------------------------------------|
D|----2----------2-------0-------0-------------------|
A|-------------0-----------------------------3-------|
E|--0------------------3-------3-------3-3h5---------|

(Guitar 1)
E|------------------------------------------|
B|------------------------------------------|
G|------0~~~~~~~~~~0~~~~~~~0~~~~~~~0~~~~~---|
D|----2----------2-------0-------2----------|
A|-------------0---------------3------------|
E|--0------------------3--------------------|

(Guitar 2)
E|------------------------------------------|
B|-------0~~~~~~~~~~0~~~~~~~0~~~~~~~0~~~~~--|
G|------------------------------------------|
D|----2----------2-------0-------2----------|
A|-------------0---------------3------------|
E|--0------------------3--------------------|

(0:52)
(Guitar 1)
E|---------------------------------------------------|
B|---------------------------------------------------|
G|------0~~~~~~~~~~0~~~~~~~0~~~~~~~0~~~~~------------|
D|----2----------2-------0-------0-------------------|
A|-------------0-----------------------------3-------|
E|--0------------------3-------3-------3-3h5---------|

(Guitar 2)
E|---------------------------------------------------|
B|------0~~~~~~~~~~0~~~~~~~0~~~~~~~0~~~~~------------|
G|---------------------------------------------------|
D|----2----------2-------0-------0-------------------|
A|-------------0-----------------------------3-------|
E|--0------------------3-------3-------3-3h5---------|

(Guitar 1)
E|------------------------------------------|
B|------------------------------------------|
G|------0~~~~~~~~~~0~~~~~~~0~~~~~~~0~~~~~---|
D|----2----------2-------0-------2----------|
A|-------------0---------------3------------|
E|--0------------------3--------------------|

(Guitar 2)
E|------------------------------------------|
B|-------0~~~~~~~~~~0~~~~~~~0~~~~~~~0~~~~~--|
G|------------------------------------------|
D|----2----------2-------0-------2----------|
A|-------------0---------------3------------|
E|--0------------------3--------------------|

(When the drums come in play each little progression twice for example play guitar I like this)
E|-----------------------------|
B|-----------------------------|
G|------0~~~~~0~~~~~~0~~~~~0~~-|
D|----2-----2------2-----2-----|
A|--------------0------0-------|
E|--0-----0--------------------|

(and now play this lead)
E|----------------------------------------------|
B|---5~~~~~-------------------------------------|
G|---------4~~~~~7-5-4-5--4~~~~~~~~~------------|
D|-----------------------------------5~~~~~~----|
A|----------------------------------------------|
E|----------------------------------------------|
                                                       (x2)
E|----------------------------------------------|
B|---5~~~~~--------/8--7-8-7--7h8p7--------5~~~-|
G|---------4~~~~~~------------------7~~~~-------|
D|----------------------------------------------|
A|----------------------------------------------|
E|----------------------------------------------|

(now on electric get ur amp to feedback an F)
E|--(0)~~~~~~~~~~~~~~~~~~~~~~~~~~~~~~~~~~~~~~~~~~~~------------------------|
B|--(5)~~~~~~~~~~~~~~~~~~~~~~~~~~~~~~~~~~~~~~~~~~~~------------------------|
G|-------------------------------------------------------------------------|
D|-------------------------------------------------------------------------|
A|-------------------------------------------------------------------------|
E|-------------------------------------------------------------------------|

(this part is clean. Guitar I plays intro and Guitar 2 this)
E|----8-7~~~~~~~---------------------------|
B|-------------------------8-5~~~~~~~~-----|
G|-----------------------------------------|
D|-----------------------------------------|
A|-----------------------------------------|
E|-----------------------------------------|

E|----8-7~~~~~~~7-5~~~~~~~~----------------|
B|-------------------------8-5~~~~~~~~-----|
G|-----------------------------------------|
D|---------------------------------------2-|
A|--------------------------------------2--|
E|-------------------------------------0---|

(then with clean electric try and imitate a violin and play this)
E|-------------------------------------------------------------------------|
B|-------------------------------------------------------------------------|
G|---4~~~~~~~~~7--5-4-5-4~~~~~~~~~--~~4~~~~~7--5-4-5-4~~~~~~~~~------------|
D|-------------------------------------------------------------------------|
A|-------------------------------------------------------------------------|
E|-------------------------------------------------------------------------|

(now play the intro bit but each set of notes twice while the dude sings
and every now and then play that lead)

(Guitar 1)
E|-------------------------------------------------------------------------|
B|-------------------------------------------------------------------------|
G|-------------------------------------------------------------------------|
D|---------------------9-9-9-9-9-9--7-7-7-7-7-7--5-5-5-5-5-5-5-------------|
A|--2-2-2-2-2-2-2-2-2--7-7-7-7-7-7--5-5-5-5-5-5--3-3-3-3-3-3-3-------------|
E|--0-0-0-0-0-0-0-0-0------------------------------------------------------|

(Guitar 2)
E|----------------------------------5-5-5-5-5-5--7-7-7-7-7-7-7-------------|
B|--5-5-5-5-5-5-5-5-5--7-7-7-7-7-7-----------------------------------------|
G|-------------------------------------------------------------------------|
D|-------------------------------------------------------------------------|
A|-------------------------------------------------------------------------|
E|-------------------------------------------------------------------------|

(Guitar 1)
E|-------------------------------------------------------------------------|
B|-------------------------------------------------------------------------|
G|-------------------------------------------------------------------------|
D|---------------------9-9-9-9-9-9--7-7-7-7-7-7--5-5-5-5-5-5-5-------------|
A|--2-2-2-2-2-2-2-2-2--7-7-7-7-7-7--5-5-5-5-5-5--3-3-3-3-3-3-3-------------|
E|--0-0-0-0-0-0-0-0-0------------------------------------------------------|

(Guitar 2)
E|-10-10-10-10-10-10--12-12-12-12-12-12--10-10-10-10-10-10--12-12-12-12-12-|
B|-------------------------------------------------------------------------|
G|-------------------------------------------------------------------------|
D|-------------------------------------------------------------------------|
A|-------------------------------------------------------------------------|
E|-------------------------------------------------------------------------|

(Now one guitar plays this at 3:14)
E|-------------------------------------------------------------------------|
B|-------------------------------------------------------------------------|
G|-------------------------------------------------------------------------|
D|-------------------------------------------------------------------------|
A|--3--3-3--3--3-3--3--3--2--2-2--2--2-2--2--2--2--2-2--2--2-2--2--2-2-2-2-|
E|--5--5-5--5--5-5--5--5--5--5-5--5--5-5--5--5--3--3-3--3--3-3--3--3-0-0-0-|

(4:24 Guitar I plays some really low chords and guitar 2 this)
E|-------------------------------------------------------------------------|
B|--8\7-7-7-7-7-8\7-7-7-7--7\5-5-5-5-5-7\5-5-5-5-5-5\1-1-1-1-1-5\1-1-1-1-1-|
G|-------------------------------------------------------------------------|
D|-------------------------------------------------------------------------|
A|-------------------------------------------------------------------------|
E|-------------------------------------------------------------------------|

E|-----------------------------|
B|--5\3-3-3-3-3-3-5\3-3-3-3----| (x2)
G|-----------------------------|
D|-----------------------------|
A|-----------------------------|
E|-----------------------------|

E|-------------------------------------------------------------------------|
B|-------------------------------------------------------------------------|
G|-------------------------------------------------------------------------|
D|--9-9-9-7-9-9-9-7-9-9-9-7-9-----------9-9-9-7-9-9-9-7-9-9-9-7-9----------|
A|--7-7-7-5-7-7-7-5-7-7-7-5-7--10-10-10-7-7-7-5-7-7-7-5-7-7-7-5-7----------|
E|--0-0-0---0-0-0---0-0-0---0--8--8--8-----------------------------5-7-8---|

E|---------------------------------------|
B|---------------------------------------|
G|---------------------------------------|
D|--7-7-7-5-7-7-7-7-5-5-5-5-5-5-5-5-5-5--|
A|--5-5-5-3-5-5-5-5-3-3-3-3-3-3-3-3-3-3--|
E|---------------------------------------|

(now back to the intro with leads ontop that ive already tabbed out and then this song chorus)
E|-------------------------------------------------------------------------|
B|-------------------------------------------------------------------------|
G|-------------------------------------------------------------------------|
D|-------------------5-5-5-5-5-5-5-5--9-9-9-9-9-9-9-9--7-7-7-7-7-7-7-7-----|
A|--2-2-2-2-2-2-2-2--3-3-3-3-3-3-3-3--7-7-7-7-7-7-7-7--5-5-5-5-5-5-5-5-----|
E|--0-0-0-0-0-0-0-0-------------------0-0-0-0-0-0-0-0----------------------|

(to finish off play this little lead)
E|------10-10--------7~~~-----------|
B|--7-7--------8-7-8-----8~~7~~-----| (change the last note to something
G|-----------------------------9~~--| else if u cant figure it out let me
D|----------------------------------| know and ill put it all on here)
A|----------------------------------|
E|----------------------------------|


************************************

| ~  Vibrato
| h  Hammer-on
| p  Pull-off
| /  Slide up
| \  Slide down
00:00 / 00:00
Otros videos de esta canción
Repetir
Otros videos de esta canción
44 exhibiciones
    • ½ Tono
    • A
    • Bb
    • B
    • C
    • Db
    • D
    • Eb
    • E
    • F
    • F#
    • G
    • Ab
  • Agregar a la lista

Afinación de cifrado

Afinador online

    00:00 / 00:00
    OK