Cifra Club

Nebula

Incubus

Cifrado: Principal (guitarra y guitarra eléctrica)
tono: D
Let Ring............
E|-----------------------------------------------------------------
B|----11-----------------------------------------------------------
G|-----------------------------------------------------------------
D|-----------------------------------------------------------------
A|-----------------------------------------------------------------
D|-----------------------------------------------------------------

heavy bit    
E|-----------------------------------------------------------------
B|-----------------------------------------------------------------
G|-----------------------------------------------------------------
D|--7-7--8--7-7-7--8---7-7-7-7-7---8---7-7-7---8---7-7-7-7-7---8---
A|--7-7--6--7-7-7--6---7-7-7-7-7---6---7-7-7---6---7-7-7-7-7---6---
D|--7-7-- --7-7-7------7-7-7-7-7-------7-7-7-------7-7-7-7-7-------

weird bit             
E|--------------------------------------|------------------------------------------------
B|--------------------------------------|------------------------------------------------
G|--------------------------------------|------------------------------------------------
D|-------4--2--0-2-0------0-------------|- -5---5-5-5-----7---7-7-7----------------------
A|--2-------------------4---------------|---5---5-5-5-----7---7-7-7--------0-0-0-0-0-0-0-
D|--------------------------------------| --5---5-5-5-----7---7-7-7--------0-0-0-0-0-0-0-

or you could play it how 'quad' says [it probably sounds better this way + this is apparently how 
they play it live]
 
E|----------------------
B|----------------------
G|--13--11--11----------
D|11--14--14--13--14----
A|---------------------- 
D|----------------------

laughing bit  
E|---------------------------------------
B|---------------------------------------
G|-------7---------7---------------------
D|-------7---------7---------------------
A|--0-0--5--0-0-0--5---------------------
D|--0-0-----0-0-0------------------------
00:00 / 00:00
Otros videos de esta canción
Repetir
Otros videos de esta canción
Composición de Alex Katunich / Brandon Boyd / Gideon Koppel / Jose Antonio Pasillas II / Mike Einziger
Colaboración y revisión:
  • Jorge Miguel
34 exhibiciones
    • ½ Tono
    • A
    • Bb
    • B
    • C
    • Db
    • D
    • Eb
    • E
    • F
    • F#
    • G
    • Ab
  • Agregar a la lista
    00:00 / 00:00
    OK