Cifra Club

Redefine

Incubus

Cifrado: Principal (guitarra y guitarra eléctrica)
tono: Bb
(intro)
(Play all palm-muted)

E |-----------------------------------------------------------------
B |-----------------------------------------------------------------
G |-----------------------------------------------------------------
D |-----------------------------------------------------------------
A |---------------------------------------------------------3-------
D |-0-4-0-4-0-4-0-4-0-4-0-4-0-4-0-4-0-4-0-4-0-4-0-4-0-4-0-4---4-0-4-

E |-----------------------------------------------------------------
B |-----------------------------------------------------------------
G |-----------------------------------------------------------------
D |-------------------------------------------------0-0-0-0-3-3-3-3-
A |-------------------------0-----------------------0-0-0-0-3-3-3-3-
D |-0-4-0-4-0-4-0-4-0-4-0-4---4-0-4-0-4-0-4-0-4-0-4-0-0-0-0-3-3-3-3-
                                                   < Palm muted  >
(verse - distortion)

(play the Main Riff 3x followed by the interlude)

(Main Riff)                                   (Interlude)

E |---------------------------------           -----------------
B |---------------------------------           -----------------
G |-------------------------5-------           -----------------
D |-0-4---4-0-4---4---4-0-4-5-4-0-4-           -0-0-0-0-3-3-3-3-
A |-0-4---4-0-4---4---4-0-4-3-4-0-4-  x3, then -0-0-0-0-3-3-3-3-
D |-0-4---4-0-4---4---4-0-4---4-0-4-           -0-0-0-0-3-3-3-3-
                                               < Palm Muted  >

(then play the Main Riff x3 followed by this chord)

E |-5--
B |-4--
G |-2--
D |-0-- (Play with Phaser at end of intro)
A |----
D |----

(verse)
(Phaser)

E |-10-----8--8----8---------4-----10-----8--8----8-------5--5-
B |--------7--7----7---------3------------7--7----7-----3-4--4-
G |----------------------1---2------------------------1---2--2-
D |------------------------0------------------------0----------  x2
A |------------------------------------------------------------
D |------------------------------------------------------------
00:00 / 00:00
Otros videos de esta canción
Repetir
Otros videos de esta canción
Composición de Alex Katunich / Brandon Boyd / Gideon Koppel / Jose Antonio Pasillas II / Mike Einziger
Colaboración y revisión:
  • Magali Silva
45 exhibiciones
    • ½ Tono
    • A
    • Bb
    • B
    • C
    • Db
    • D
    • Eb
    • E
    • F
    • F#
    • G
    • Ab
  • Agregar a la lista
    00:00 / 00:00
    OK