Cifra Club

Becoming Insane

Infected Mushroom

Cifrado: Principal (guitarra y guitarra eléctrica)
tono: C
Tabbed by: Meidan Greenberg From Israel
Email: *@*

Tuning: EADGBe

-------------------------------------------------------------------------------

Intro: (00:00)

e|-5-5--6--6--3--3--6-5\0|-5-5--6--6--10--9--5-9|
B|-----------------------|----------------------|
G|-----------------------|----------------------|
D|-----------------------|----------------------|
A|-----------------------|----------------------|
E|-----------------------|----------------------|

e|-12-12--13--13--10--10--13-12-|-5-5--6--6--3--3--6-5-3-5-|
B|------------------------------|--------------------------|
G|------------------------------|--------------------------|
D|------------------------------|--------------------------|
A|------------------------------|--------------------------|
E|------------------------------|--------------------------|   X2

Verse : 

BassLine (00:27)
e|--------------------------------|
B|--------------------------------|
G|--------------------------------|
D|--------------------------------|
A|--------------------------------|
E|---5x--5x--5x--5x--5x---5x------|  X8

(00:40) - This is not 100% right..but this is what there is.

e|--5-5-5-6-5---(X4)-|-3-3-3-5-5---5-5-5-6-5|-5-5-5-6-5--|
B|--5-5-5-6-5---(X4)-|-3-3-3-5-5---5-5-5-6-5|-5-5-5-6-5--|
G|-------------------|----------------------|------------|
D|-------------------|----------------------|------------|
A|-------------------|----------------------|------------|
E|-------------------|----------------------|------------| X2

(03:22)
Verse: 


e|-5-5--6--6--3--3--6-5\0|-5-5--6--6--10--9--5-9|
B|-----------------------|----------------------|
G|-----------------------|----------------------|
D|-----------------------|----------------------|
A|-----------------------|----------------------|
E|-----------------------|----------------------|

e|-12-12--13--13--10--10--13-12-|-5-5--6--6--3--3--6-5-3-5-|
B|------------------------------|--------------------------|
G|------------------------------|--------------------------|
D|------------------------------|--------------------------|
A|------------------------------|--------------------------|
E|------------------------------|--------------------------|   X4

(04:02)
BassLine:

e|--------------------------------|
B|--------------------------------|
G|--------------------------------|
D|--------------------------------|
A|--------------------------------|
E|---5x--5x--5x--5x--5x---5x------|  X16+ (=

(05:34)
Electric Guitar Riff:

e|------------------|------------------|----------------|-----------------|
B|------------------|------------------|----------------|-----------------|
G|------------------|------------------|----------------|-----------------|
D|------------------|------------------|----------------|-----------------|
A|------------------|------------------|----------------|-----------------|
E|--8--8-5---8--8-5x|--8--8-5---8--8-5x|-7--7-3--7--7-3-|-8--8--8--~~~~~/-|

e|---------------------------|------------------|----------------|---------------------|
B|---------------------------|------------------|----------------|---------------------|
G|---------------------------|------------------|----------------|---------------------|
D|---------------------------|------------------|----------------|---------------------|
A|---------------------------|------------------|----------------|---------------------|
E|--8--8-5---8--8-5-12-10-8-5|--8--8-5---8--8-5x|-7--7-3--7--7-3-|-8--8-5--8--8-5~~----|

X3 

(06:54)
Outro:

e|-5-5--6--6--3--3--6-5\0|-5-5--6--6--10--9--5-9|
B|-----------------------|----------------------|
G|-----------------------|----------------------|
D|-----------------------|----------------------|
A|-----------------------|----------------------|
E|-----------------------|----------------------|

e|-12-12--13--13--10--10--13-12-|-5-5--6--6--3--3--6-5-3-5-|
B|------------------------------|--------------------------|
G|------------------------------|--------------------------|
D|------------------------------|--------------------------|
A|------------------------------|--------------------------|
E|------------------------------|--------------------------|   X2

00:00 / 00:00
Otros videos de esta canción
Repetir
Otros videos de esta canción
Composición de Amit Duvdevani / Erez Aizen
381 vistas
    • ½ Tono
    • A
    • Bb
    • B
    • C
    • Db
    • D
    • Eb
    • E
    • F
    • F#
    • G
    • Ab
  • Agregar a la lista

    0 comentarios

    Ver todos los comentarios

    ¿Lograste tocar?

    0 Tocaron 0 Aún no

    ¡Graba un video tocando Becoming Insane y envíanoslo!

    00:00 / 00:00
    OK