Cifra Club

Renovo

Ingrid Damasceno

Tablatura: Principal (guitarra)
Tom: F (con acordes en la forma de G) Afinação: D G C F A D
[Intro] C  Am7  G

   C              Am7            G
E|----------------------------------3-2---5-|
B|--1-0-1-0-1-0----1-0-1-0-1-3----0----3-3--|
G|------------------------------------------|
D|------------------------------------------|
A|------------------------------------------|
E|------------------------------------------|

   G
O que dizer
                  C9
Se já disse quase tudo
       Em/D
O meu coração
  D                 C9
Precisa da Tua mão aqui

   G   
O que fazer 
                 C9
Pra chamar Tua atenção pra mim, Deus
  Em/D
Restaura em mim
   D                C9
A canção do amor por Ti

Refrão:
  G
Ó, Deus 
               C9
Preciso de um renovo
  G
Ó, Deus
                        C9
Preciso te encontrar de novo
     Em/D
E Te ouvir
         D
E Te sentir
                        Am7
Ser consumido pelo Teu olhar
  
  G
Ó, Deus 
               C9
Preciso de um renovo
  G
Ó, Deus
                        C9
Preciso te encontrar de novo
     Em/D
E Te ouvir
         D
E Te sentir
                     C9
Ser tomado por Tua presença

    Am7
Eu tinha os acordes
               G
Mas faltava a letra
    Am7
Eu tinha um coração
                    G
Mas faltava a Tua presença
    Am7
Eu tinha o violão 
                G
Mas faltava a adoração
     Am7
Eu tinha um coração
                      G
Mas faltava a Tua essência

( C  Am7  G )

C              Am7            G
E|----------------------------------3-2---5-|
B|--1-0-1-0-1-0----1-0-1-0-1-3----0----3-3--|
G|------------------------------------------|
D|------------------------------------------|
A|------------------------------------------|
E|------------------------------------------|

Na na na na na na na na na na na na na ô ô ô 

( Em/D )
Acordes para:
    Composição: Ingrid Damasceno Colaboración y revision:
    • Onecsamad i
    • Ingrid

    0 comentarios

    mostrar más comentarios

    ¿Conseguiste tocar?

    0 tocaron 0 aún no

    ¡Graba un vídeo tocando Renovo y envianoslo!

    00:00 / 00:00
    outros vídeos desta música
    repetir qualidade Automático
    Outros vídeos desta música
    00:00 / 00:00
    Automático
    OK