Cifra Club

El poder de tu amor

Ingrid Rosario

Cifrado: Principal (guitarra y guitarra eléctrica)
tono: G
Intro

E|------------------------------------------------------------------|
B|------------------------------------------------------------------|
G|----------14-12--------------14-12-12-12-12-11-11-12-9-9-------9--|
D|--9-10-12-------9-9-10-12-12-----------------------------12-12----|
A|------------------------------------------------------------------|
E|------------------------------------------------------------------|


Arreglo

E|------------------------------------------------------------------|
B|------------------------------------------------------------------|
G|-9-9-9-11-12-12-11-9----------------------------------------------|
D|---------------------12-------------------------------------------|
A|------------------------------------------------------------------|
E|------------------------------------------------------------------|
00:00 / 00:00
Otros videos de esta canción
Repetir
Otros videos de esta canción
Composición de Geoff Bullock
31 vistas
    • ½ Tono
    • A
    • Bb
    • B
    • C
    • Db
    • D
    • Eb
    • E
    • F
    • F#
    • G
    • Ab
  • Agregar a la lista

    0 comentarios

    Ver todos los comentarios

    ¿Lograste tocar?

    0 Tocaron 0 Aún no

    ¡Graba un video tocando El poder de tu amor y envíanoslo!

    00:00 / 00:00
    OK