Cifra Club

Tus Palabras

Ingrid Rosario

Cifrado: Principal (guitarra y guitarra eléctrica)
tono: Dm
Intro en Piano(C5,F,Am,F)

Intro en Guitarra:

E|-----------------------------------------------------------|
B|--------------------12-12-12-13-13-13----------------------|
G|------12-----12--------------------------------------------|
D|-14-14--14-14--14-14-----------------14-14-----------------|
A|-----------------------------------------------------------|
E|-----------------------------------------------------------|

E|------------------------------------------------------------|
B|--------------------12-12-12-13-13-13-----------------------|
G|------12-----12---------------------------------------------|
D|-15-15--15-15--15-15-----------------15-15------------------| D (x2)
A|------------------------------------------------------------|
E|------------------------------------------------------------|

Verso

C5                     F                Am
En Ti confío mi Señor, confío sin temor,
               F
Caminare en tu dirección.
C5                         F                  Am
Tu luz alumbrará mis pies, confiado yo estaré.
               F
Me guiaras, te seguiré.(x2)

Coro #1
Intro de piano y Guitarra juntos

Verso 2

C5                     F                Am
En Ti confío mi Señor, confío sin temor,
               F
Caminare en tu dirección.
Em                         F                  Am
Tu luz alumbrará mis pies, confiado yo estaré.
               F
Me guiaras, te seguiré.

Coro
C5               F5
Tu voz escuchare, tu voz yo seguiré,
A5              F5
En mi esconderé tus palabras.
C5               F5
Tu voz escuchare, tu voz yo seguiré,
C5              F5
En mi esconderé tus palabras. (x3)

Puente
C5      F       Am        F
Háblame, háblame, háblame,

Quiero oír tu voz.(x2)

Em      F       Am        F
Háblame, háblame, háblame,
00:00 / 00:00
Otros videos de esta canción
Repetir
Otros videos de esta canción
Composición de Ingrid Rosario / Sam Torres
    • ½ Tono
    • Am
    • Bbm
    • Bm
    • Cm
    • C#m
    • Dm
    • Ebm
    • Em
    • Fm
    • F#m
    • Gm
    • G#m
  • Agregar a la lista

    0 comentarios

    Ver todos los comentarios
    00:00 / 00:00
    OK