Cifra Club

Bright As Yellow

Innocence Mission

Cifrado: Principal (guitarra y guitarra eléctrica)
tono: G
#



Date: Sat, 21 Dec 1996 06:01:36 -0600
From: Dominick Mancine 

Bright as Yellow


Chords:
  Bb Bb(6) G   C  C/G  F  Dm
---1---6---3---0---3---1---1---|
---3---6---3---1---1---1---3---|
---3---7---0---0---0---2---2---|
---3---8---0---2---2---3---0---|
---1---8---2---3---3---3-------|
---1---6---3-----------1-------|


intro:
Bb G Bb G C
F Bb(6) F

        Bb                  F
And you live life with your arms reached out
Bb              F
Eye to eye when speaking
Bb               F
Enter rooms with great joy shouts
Dm          C/G
Happy to be meeting

Bb       G
  And bright
Bb   G
  bright
Bb        G         C
  bright, bright as yellow
Bb        F        Bb(6) F
  warm as yellow

      Bb             F
And I do not want to be a rose
  Bb             F
I do not wish to be pale pink
     Bb              F
But flower scarlet, flower gold
Dm                 C/G
Have no thorns to distance me

Bb       G
  And bright....

Bb             F
  Even if I'm shining
Bb            F
Even if I'm shining here inside
Bb           F                             Dm
Even if I'm shouting, can you see that I'm wanting
             C/G
And I want to be so

Bb
So bright...


----------------------------------------------------------|
----------------------------------------------------------|
-------------------------9--9-9-7s14----------------------|
----------------------------------------12-12s10-8-7-5s10-|
-0-1-3-s5-------0-1-s7------------------------------------|
--------------3-------------------------------------------|

------------------------|
------------------------|
--9------9--------------|
----10-----10-----------|
--------------10--------|
------------------------|

Bb              F
  Even if I'm shining...


Song ends with:
--5-------|
----6-----|
------5---|
----------|
----------|
----------|

Dominick Mancine
*
Composición de Karen Peris
62 vistas
    • ½ Tono
    • A
    • Bb
    • B
    • C
    • Db
    • D
    • Eb
    • E
    • F
    • F#
    • G
    • Ab
  • Agregar a la lista

    0 comentarios

    Ver todos los comentarios

    ¿Lograste tocar?

    0 Tocaron 0 Aún no

    ¡Graba un video tocando Bright As Yellow y envíanoslo!

    00:00 / 00:00
    Outros vídeos desta música
    Repetir Calidad Automático
    Outros vídeos desta música
    00:00 / 00:00
    Automático
    OK