Cifra Club

Amargo Adios

Inspector

Chords: Principal (acoustic and electric guitars)
tone: Dm
INTRO 1:
            Dm          C       A#               Dm
E|--------------------------------------------------------------------|
B|-----------------------------------------------------------------3--|
G|---------------------------------------------------------------2----|
D|----7-5----------7-5---------------------------------------0-3------|
A|--5-----8--5---5-----5--7-----8-7-5----5---5-7-8-7~~5-8-5-----------|
E|-------------------------------------8---8--------------------------|

INTRO 2:
           Dm        C           A#         C        Dm
E|----5-3---3h5---5-3---1-0-1p0--1-0---------------------------|
B|--3-----3-----3-----3--------------3-1-3-1-3-5-6-5-3/1-1/3---|
G|-------------------------------------------------------------|
D|-------------------------------------------------------------|
A|-------------------------------------------------------------|
E|-------------------------------------------------------------|

           Dm        C                A#         C      Dm
E|----5-3---3h5---5-3---1-0-1-3-1-0-0-1-0----------------------------3-5-|
B|--3-----3-----3-----3-------------------3-1-3-1-3-5-6-5-3-1/3----3-----|
G|-----------------------------------------------------------------------|
D|-----------------------------------------------------------------------|
A|-----------------------------------------------------------------------|
E|-----------------------------------------------------------------------|


VERSO 1:
                Dm              C
Se que es tarde ya para pedir perdón,
          A#               C                   Dm
se que es tarde ya y lo siento termina nuestro amor

VERSO 2:
      Dm                          C
Si ya nada funciona contigo el intento no va más allá
      A#                     C                 Dm
no me pidas darle tiempo al tiempo no puedo esperar

VERSO 3:
       Dm                            C
Si la culpa fue tuya o fue mía el saberlo ya no servirá
      A#                 C          Dm
no me pidas que sea tu amigo te aseguro no funcionara

CORO:
     F                Am             Dm                A#
Sólo unos minutos te pido voy a ahorrarte tener que explicar
     F                     Am          A#                 A
diferencia entre novio y amigo cuánto tiempo puede funcionar
       F                  Am         Dm            A#
Y con vodka pretendo olvidarte mis amigos y esta canción
        F       A#          A#  A# A# A#  C A#  A
porque sé que siempre, que siempre es amargo el adios

VERSO 1:
                Dm              C
Se que es tarde ya para pedir perdón,
          A#               C                   Dm
se que es tarde ya y lo siento termina nuestro amor

VERSO 1:
                Dm              C
Se que es tarde ya para pedir perdón,
          A#               C                   Dm
se que es tarde ya y lo siento termina nuestro amor

G  O:

CORO:
     F                Am             Dm                A#
Sólo unos minutos te pido voy a ahorrarte tener que explicar
     F                     Am          A#                 A
diferencia entre novio y amigo cuánto tiempo puede funcionar
       F                  Am         Dm            A#
Y con vodka pretendo olvidarte mis amigos y esta canción
        F       A#          A#  A# A# A#  C A#  A
porque sé que siempre, que siempre es amargo el adios

VERSO 1:
                Dm              C
Sé que es tarde ya para pedir perdón,
          A#               C                 Dm
sé que es tarde ya y lo siento termina nuestro amor

VERSO 1:
                Dm              C
Sé que es tarde ya para pedir perdón,
          A#             C                 Dm
sé que es tarde ya lo siento termina nuestro amor
          A#             C                 Dm
Sé que es tarde ya lo siento termina nuestro amor,
          A#             C                   Dm
sé que es tarde ya lo siento amargo es el adiós
00:00 / 00:00
Other videos of this song
Repeat
Other videos of this song
Composed by Homero Ontiveros / Jesús Arriaga
438 views
    • ½ Tone
    • Am
    • Bbm
    • Bm
    • Cm
    • C#m
    • Dm
    • Ebm
    • Em
    • Fm
    • F#m
    • Gm
    • G#m
  • Add to list
    00:00 / 00:00
    OK