Cifra Club

El Mercado De Testaccio

Inti-Illimani

Cifrado: Principal (guitarra y guitarra eléctrica)
Selo Cifra Club: esta cifra foi revisada para atender aos critérios oficiais da nossa Equipe de Qualidade.
tono: E
E||------------------|---------------------|
B||------------------|------------12-12-10-|
G||------------------|---------------------|
D||------------------|---------------------|
A||------------------|---------------------|
E||------------------|---------------------|


E|------------------------------|--------------------10-10-10-----|--10-----|
B|-12-10-12--10-------12-12-10--|--12-10-12----12-13----------13--|-----10--|
G|--------------12--------------|---------------------------------|---------|
D|------------------------------|---------------------------------|---------|
A|------------------------------|---------------------------------|---------|
E|------------------------------|---------------------------------|---------|


E|-10-----10------|---10-------------------|-------------------------------|
B|----13-----10---|------13-------12-12-10-|--12-10-12--10--------12-12-10-|
G|----------------|------------------------|---------------12--------------|
D|----------------|------------------------|-------------------------------|
A|----------------|------------------------|-------------------------------|
E|----------------|------------------------|-------------------------------|


E|--------------------10-10-10----10------|------------10-12-10-------|
B|--12-10-12----12-13----------13----10---|------------------------13-|
G|----------------------------------------|---------------------------|
D|----------------------------------------|---------------------------|
A|----------------------------------------|---------------------------|
E|----------------------------------------|---------------------------|


E|------------------12-12-11-|-12-11-12----------12---15-|
B|--12-13-12-10--------------|----------13-12------------|
G|--------------12-----------|---------------------------|
D|---------------------------|---------------------------|
A|---------------------------|---------------------------|
E|---------------------------|---------------------------|


E|--14-12-11-12-10----------|-------------------------|---------------------|
B|-------------------13-----|--12---13-12-11----12-13-|--12-11---12---------|
G|--------------------------|-------------------------|--------------12-9---|
D|--------------------------|-------------------------|---------------------|
A|--------------------------|-------------------------|---------------------|
E|--------------------------|-------------------------|---------------------|


E|-12-12-11--|--12-11-12----------12----15--|--14-12-11----------------|
B|-----------|-----------13-12--------------|------------13---12--11---|
G|-----------|------------------------------|--------------------------|
D|-----------|------------------------------|--------------------------|
A|-----------|------------------------------|--------------------------|
E|-----------|------------------------------|--------------------------|


E|------------------------|---------------------|-----------11-----------|
B|-12-13-12-11---12-13-12-|--11-12-13---12--11--|--12-13-12------13--12--|
G|------------------------|---------------------|------------------------|
D|------------------------|---------------------|------------------------|
A|------------------------|---------------------|------------------------|
E|------------------------|---------------------|------------------------|


E|----------------------|---------------------------|----------------------|
B|-10-9-9-10-10-10-9----|---10-----10------13----12-|----10-9-9-10-10-10-9-|
G|----------------------|------9--------------------|----------------------|
D|----------------------|---------------------------|----------------------|
A|----------------------|---------------------------|----------------------|
E|----------------------|---------------------------|----------------------|


E|-------------------------|-----------------------|-------------------|
B|----10------10--13---12--|----10-----------------|-------------------|
G|-------9-----------------|--------12----12-12-11-|--12-11-12---11-9--|
D|-------------------------|-----------------------|-------------------|
A|-------------------------|-----------------------|-------------------|
E|-------------------------|-----------------------|-------------------|


E|-----------|-----------------------------|--------------------------|
B|-----------|-----------------------------|------------10--12--------|
G|-12-12-11--|-12-11-12--11--9---12-12--11-|-12-11-12-----------------|
D|-----------|-----------------------------|--------------------------|
A|-----------|-----------------------------|--------------------------|
E|-----------|-----------------------------|--------------------------| X 2
Otros videos de esta canción
    56 exhibiciones
      • ½ Tono
      • A
      • Bb
      • B
      • C
      • Db
      • D
      • Eb
      • E
      • F
      • F#
      • G
      • Ab
    • Agregar a la lista

    Afinação da cifra

    Afinador online

      Ops (: Contenido disponible solo en portugués.
      OK