Cifra Club

Es tan bello

Intocable

Cifrado: Principal (guitarra y guitarra eléctrica)
tono: C
E|-----0-0------0-0----------------------------------|
B|-1-3----1-1------3-3-0-0---3-3-1-1----------1-3-1--|
G|-----------2-2----------0-0-------2-2--------------|
D|-------------------------------------3-3-3-3-3-----| x2
A|---------------------------------------------------|
E|---------------------------------------------------|

despues esta part se repite cuando se pone Am
ojala me entiendan pero cuando saquen este requinto
sabran a q me refiero

E|-1-0-----0----------------------|
B|-----3-1---3-1--1-0-1-----------|
G|---------------2----------------|
D|--------------------------------|
A|--------------------------------|
E|--------------------------------|

E|-1-0-----0----------0-----------|
B|-----3-1---3-1--1-0-------------|
G|---------------2----------------|
D|--------------------------------|
A|--------------------------------|
E|--------------------------------|
Composición de Miguel Mendoza
2 vistas
    • ½ Tono
    • A
    • Bb
    • B
    • C
    • Db
    • D
    • Eb
    • E
    • F
    • F#
    • G
    • Ab
  • Agregar a la lista

    0 comentarios

    Ver todos los comentarios

    ¿Lograste tocar?

    0 Tocaron 0 Aún no

    ¡Graba un video tocando Es tan bello y envíanoslo!

    00:00 / 00:00
    Outros vídeos desta música
    Repetir Calidad Automático
    Outros vídeos desta música
    00:00 / 00:00
    Automático
    OK