Cifra Club

Las cosas que no se tocan

Intoxicados

Cifrado: Principal (guitarra y guitarra eléctrica)
tono: D
Intro

Guitarra 1: (RIFF)
E|--------------------------------------------------|
B|--------------------------------------------------|
G|----2----------2----------2-----------------------|
D|--2---2-2----2---2-2----2---2-2-----2----2--2-----|
A|--0---0-0----0---0-0----0---0-0-----0----0--0-----|
E|---------------------------------3p---3p----------|
Guitarra 2:
E|--------------------------------------------------|
B|--------------------------------------------------|
G|--------------------------------------------------|
D|------------7-----------7----------7----------5--7|
A|----------7-----------7----------7--------5/9---7-|
E|--------------------------------------------------|

Guitarra 1: (RIFF)
E|-------------------------------------------|
B|-------------------------------------------|
G|---2----------2----------2-----------------|
D|-2---2-2----2---2-2----2---2-2-----2-----2-|
A|-0---0-0----0---0-0----0---0-0-----0-----0-|
E|-------------------------------3p-----3p---|
Guitarra 2:
E|-------------------------------------------|
B|-------------------------------------------|
G|-------------------------------------------|
D|-----------7----------7------------10b---7-|
A|---------7----------7----------------------|
E|-------------------------------------------|
la p significa que estiren para abajo.


Con Riff de base

ME gustan las chicas
me gustan las drogas
me gusta mi guitarra
james brown y Madonna

Me gustan los perros
me gusta mi estéreo
me gusta la calle
y algunas otras cosas

             E 
pero lo que más me gusta
         D               Riff
Son las cosas que no se tocan

me gusta el dinero
para comprarme lo que quiero
me gustan als visitas
para matar el tiempo

me gusta esa luz
me gusta esta sombre
me gusta los grupos
que no estan de moda

me gustan loas autos
los trenes, los barcos
me gusta que al que espero
no tarde mas de un rato

con riff de base

me gusta el arroz
me gusta el puchero
me gusta el amarillo
el rojo, el verde y el negro

             E 
pero lo que mas me gusta
         D                Riff
son las cosas que no se tocan
00:00 / 00:00
Otros videos de esta canción
Repetir
Otros videos de esta canción
Composición de Pity
340 exhibiciones
    • ½ Tono
    • A
    • Bb
    • B
    • C
    • Db
    • D
    • Eb
    • E
    • F
    • F#
    • G
    • Ab
  • Agregar a la lista
    00:00 / 00:00
    OK