Cifra Club

Nunca Quise

Intoxicados

Cifrado: Principal (guitarra y guitarra eléctrica)
Selo Cifra Club: esta cifra foi revisada para atender aos critérios oficiais da nossa Equipe de Qualidade.
tono: A
[Intro] D  E  A
        D  E  A
        D  E  F#m
        Bm  E

[Tab - Intro]

Parte 1 de 2
  D  E  A     
E|------------------------------------------|
B|------------------------------------------|
G|---------9/11--13/14--11------------------| (x2)
D|------------------------------------------|
A|---------7/9---11/12--9-------------------|
E|------------------------------------------|

Parte 2 de 2
   D  E      F#m  Bm  E
E|------------------------------------------|
B|------------------------------------------|
G|----9/7-6-----------4--6---7--4-----------|
D|------------------------------------------|
A|----7/5-4-----------2--4---5--2-----------|
E|------------------------------------------|

[Primeira Parte]

        D            Bm
Nunca quise tanto a nadie como vos
    C#m                     F#m
Por eso es que empiezo a dudar
      Bm                     E
Si seremos hermanos que nos separaron
     A
Y nosotros sin saberlo 
        A7
Nos volvimos a juntar

    D                 Bm
Tu sangre es roja la mía también
      C#m                 
Pero no me equivoco algo 
 F#m
Tendremos que ver
      Bm         
Somos indios latinos 
        E
Con guitarra léctrica
   A                A7
Y comunicados a través de Internet

[Refrão]

D        E               A
  Para odiar hay que querer
D           E              A
  Para destruir hay que hacer
        D     E          A        F#m
Y estoy orgulloso de quererte romper
      Bm               E
La cabeza contra la pared

[Segunda Parte]

       D                
Y por todas esas cosas 
       Bm
Que tenemos en común
      C#m                     F#m
Hace tiempo ya marchaste de acá
       Bm                   E
Te cansaste de mi yo me canse de vos
          A
Pero cuando nos miramos 
     A7
Sabemos que no es verdad

        D                Bm
Porque tanto te quise y tanto te quiero
        C#m           
Siempre una marca tuya 
      F#m
Llevará mi corazón
       Bm                E
Disculpa si te parece raro
                   A
Pero comparto la opinión que 
           A7
Escuché en una canción: Let It Be

[Pré-Refrão]

D             Bm                 
  Si la amas déjala ser  
        C#m             F#m
Si la quieres déjala volar
       Bm         
Nunca fui tu patrón  
       E
No quisiera cambiarte
       A
Y no quiero que pierdas 
       A7
Tu personalidad

[Refrão]

D        E               A
  Para odiar hay que querer
D           E              A
  Para destruir hay que hacer
     D        E          A        F#m
Y estoy orgulloso de quererte romper
      Bm               E
La cabeza contra la pared

[Interlúdio] D  E  A  D  E  A 
             D  E  A  F#m  Bm  E 
             D  E  A  D  E  A 
             D  E  A  F#m  Bm  E 

[Tab - Solo]

Parte 1 de 6
    D  E     A                 D   E     A
E|------------------------------------------|
B|------------------------------------------|
G|--14-13/11-9------------------------------|
D|--------------------------7--12--11/9--7--|
A|--12-11/9--7----------7-9-----------------|
E|----------------5-8/9--------10--9/7---5--|

Parte 2 de 6
                D    E    A        F#m
E|------------------------------------------|
B|------------------------------------------|
G|--9/11-13/14--11---9/7--6-----------------|
D|----------------------------11/9-7--------|
A|--7/9--11/12--9----7/5--4-----------------|
E|----------------------------9/7--5--------|

Parte 3 de 6
    Bm        E
E|------------------------------------------|
B|------------------------------------------|
G|--4---6--7--9---11--13--------------------|
D|------------------------------------------|
A|--2---4--5--7---9---11--------------------|
E|------------------------------------------|

Parte 4 de 6
    D  E     A                 D   E     A
E|------------------------------------------|
B|------------------------------------------|
G|--14-13/11-9------------------------------|
D|--------------------------7--12--11/9--7--|
A|--12-11/9--7----------7-9-----------------|
E|----------------5-8/9--------10--9/7---5--|

Parte 5 de 6
                D    E    A        F#m
E|------------------------------------------|
B|------------------------------------------|
G|--9/11-13/14--11---9/7--6-----------------|
D|----------------------------11/9-7--------|
A|--7/9--11/12--9----7/5--4-----------------|
E|----------------------------9/7--5--------|

Parte 6 de 6
    Bm        E
E|------------------------------------------|
B|------------------------------------------|
G|--4---6--7--9---11--13--14---16--18--19---|
D|------------------------------------------|
A|--2---4--5--7---9---11--12---14--16--17---|
E|------------------------------------------|

[Refrão Final]

D        E               A
  Para odiar hay que querer
D           E              A
  Para destruir hay que hacer
     D        E          A        F#m
Y estoy orgulloso de quererte romper
      Bm               E
La cabeza contra la pared

D         E             A
  Para dejar hay que beber
D         E           A
  Para morir primero hay que nacer
        D          E         
Siento ganas nuevamente 
      A            F#m
De tirarme a tus pies
      Bm                     E
Y llevarte a mi morada otra vez

[Pós-Refrão]

D            E          A
  Si lo sembrás lo recoges
D           E              A
  Y si esperás vas a entender
            D     E   
Cuando las cosas salen 
      A          F#m
Como no las espero
    Bm                   E
La vida me hace mas guerrero

[Final] D  E  A 
        D  E  A 

[Solo Final]

    D  E     A                 D   E     A
E|------------------------------------------|
B|------------------------------------------|
G|--14-13/11-9------------------------------|
D|--------------------------7--12--11/9--7--|
A|--12-11/9--7----------7-9-----------------|
E|----------------5-8/9--------10--9/7---5--|
Otros videos de esta canción
    322.250 exhibiciones
    • Simplificar cifrado
      • ½ Tono
      • A
      • Bb
      • B
      • C
      • Db
      • D
      • Eb
      • E
      • F
      • F#
      • G
      • Ab
    • Agregar a la lista

    Afinación de cifrado

    Afinador online

      OK